  0
SECTION
  2
HEADER
  9
$ACADVER
  1
AC1015
  9
$ACADMAINTVER
 70
     6
  9
$DWGCODEPAGE
  3
ANSI_1254
  9
$INSBASE
 10
0.0
 20
0.0
 30
0.0
  9
$EXTMIN
 10
0.0
 20
0.0
 30
0.0
  9
$EXTMAX
 10
279.4
 20
215.9
 30
0.0
  9
$LIMMIN
 10
0.0
 20
0.0
  9
$LIMMAX
 10
279.4
 20
215.9
  9
$ORTHOMODE
 70
     0
  9
$REGENMODE
 70
     1
  9
$FILLMODE
 70
     1
  9
$QTEXTMODE
 70
     0
  9
$MIRRTEXT
 70
     1
  9
$LTSCALE
 40
1.0
  9
$ATTMODE
 70
     1
  9
$TEXTSIZE
 40
3.5
  9
$TRACEWID
 40
1.0
  9
$TEXTSTYLE
  7
Standard
  9
$CLAYER
  8
0
  9
$CELTYPE
  6
ByLayer
  9
$CECOLOR
 62
   256
  9
$CELTSCALE
 40
1.0
  9
$DISPSILH
 70
     0
  9
$DIMSCALE
 40
1.0
  9
$DIMASZ
 40
3.5
  9
$DIMEXO
 40
1.0
  9
$DIMDLI
 40
3.75
  9
$DIMRND
 40
0.0
  9
$DIMDLE
 40
0.0
  9
$DIMEXE
 40
1.0
  9
$DIMTP
 40
0.0
  9
$DIMTM
 40
0.0
  9
$DIMTXT
 40
3.5
  9
$DIMCEN
 40
2.5
  9
$DIMTSZ
 40
0.0
  9
$DIMTOL
 70
     0
  9
$DIMLIM
 70
     0
  9
$DIMTIH
 70
     1
  9
$DIMTOH
 70
     1
  9
$DIMSE1
 70
     0
  9
$DIMSE2
 70
     0
  9
$DIMTAD
 70
     1
  9
$DIMZIN
 70
     0
  9
$DIMBLK
  1

  9
$DIMASO
 70
     1
  9
$DIMSHO
 70
     1
  9
$DIMPOST
  1

  9
$DIMAPOST
  1

  9
$DIMALT
 70
     0
  9
$DIMALTD
 70
     3
  9
$DIMALTF
 40
0.0393700787
  9
$DIMLFAC
 40
1.0
  9
$DIMTOFL
 70
     1
  9
$DIMTVP
 40
0.0
  9
$DIMTIX
 70
     0
  9
$DIMSOXD
 70
     0
  9
$DIMSAH
 70
     0
  9
$DIMBLK1
  1

  9
$DIMBLK2
  1

  9
$DIMSTYLE
  2
ISO-25
  9
$DIMCLRD
 70
     0
  9
$DIMCLRE
 70
     0
  9
$DIMCLRT
 70
     0
  9
$DIMTFAC
 40
1.0
  9
$DIMGAP
 40
1.524
  9
$DIMJUST
 70
     0
  9
$DIMSD1
 70
     0
  9
$DIMSD2
 70
     0
  9
$DIMTOLJ
 70
     0
  9
$DIMTZIN
 70
     0
  9
$DIMALTZ
 70
     0
  9
$DIMALTTZ
 70
     0
  9
$DIMUPT
 70
     0
  9
$DIMDEC
 70
     2
  9
$DIMTDEC
 70
     2
  9
$DIMALTU
 70
     2
  9
$DIMALTTD
 70
     3
  9
$DIMTXSTY
  7
Standard
  9
$DIMAUNIT
 70
     0
  9
$DIMADEC
 70
     2
  9
$DIMALTRND
 40
0.0
  9
$DIMAZIN
 70
     0
  9
$DIMDSEP
 70
    44
  9
$DIMATFIT
 70
     3
  9
$DIMFRAC
 70
     0
  9
$DIMLDRBLK
  1

  9
$DIMLUNIT
 70
     2
  9
$DIMLWD
 70
    -2
  9
$DIMLWE
 70
    -2
  9
$DIMTMOVE
 70
     0
  9
$LUNITS
 70
     2
  9
$LUPREC
 70
     2
  9
$SKETCHINC
 40
1.0
  9
$FILLETRAD
 40
10.0
  9
$AUNITS
 70
     0
  9
$AUPREC
 70
     2
  9
$MENU
  1
.
  9
$ELEVATION
 40
0.0
  9
$PELEVATION
 40
0.0
  9
$THICKNESS
 40
0.0
  9
$LIMCHECK
 70
     0
  9
$CHAMFERA
 40
0.0
  9
$CHAMFERB
 40
0.0
  9
$CHAMFERC
 40
0.0
  9
$CHAMFERD
 40
0.0
  9
$SKPOLY
 70
     0
  9
$TDCREATE
 40
2459935.710477859
  9
$TDUCREATE
 40
2459935.585477859
  9
$TDUPDATE
 40
2459935.710478044
  9
$TDUUPDATE
 40
2459935.585478044
  9
$TDINDWG
 40
0.0000000116
  9
$TDUSRTIMER
 40
0.0000000116
  9
$USRTIMER
 70
     1
  9
$ANGBASE
 50
0.0
  9
$ANGDIR
 70
     0
  9
$PDMODE
 70
     0
  9
$PDSIZE
 40
-1.0
  9
$PLINEWID
 40
0.0
  9
$SPLFRAME
 70
     0
  9
$SPLINETYPE
 70
     6
  9
$SPLINESEGS
 70
     8
  9
$HANDSEED
  5
129
  9
$SURFTAB1
 70
     6
  9
$SURFTAB2
 70
     6
  9
$SURFTYPE
 70
     6
  9
$SURFU
 70
     6
  9
$SURFV
 70
     6
  9
$UCSBASE
  2

  9
$UCSNAME
  2

  9
$UCSORG
 10
0.0
 20
0.0
 30
0.0
  9
$UCSXDIR
 10
1.0
 20
0.0
 30
0.0
  9
$UCSYDIR
 10
0.0
 20
1.0
 30
0.0
  9
$UCSORTHOREF
  2

  9
$UCSORTHOVIEW
 70
     0
  9
$UCSORGTOP
 10
0.0
 20
0.0
 30
0.0
  9
$UCSORGBOTTOM
 10
0.0
 20
0.0
 30
0.0
  9
$UCSORGLEFT
 10
0.0
 20
0.0
 30
0.0
  9
$UCSORGRIGHT
 10
0.0
 20
0.0
 30
0.0
  9
$UCSORGFRONT
 10
0.0
 20
0.0
 30
0.0
  9
$UCSORGBACK
 10
0.0
 20
0.0
 30
0.0
  9
$PUCSBASE
  2

  9
$PUCSNAME
  2

  9
$PUCSORG
 10
0.0
 20
0.0
 30
0.0
  9
$PUCSXDIR
 10
1.0
 20
0.0
 30
0.0
  9
$PUCSYDIR
 10
0.0
 20
1.0
 30
0.0
  9
$PUCSORTHOREF
  2

  9
$PUCSORTHOVIEW
 70
     0
  9
$PUCSORGTOP
 10
0.0
 20
0.0
 30
0.0
  9
$PUCSORGBOTTOM
 10
0.0
 20
0.0
 30
0.0
  9
$PUCSORGLEFT
 10
0.0
 20
0.0
 30
0.0
  9
$PUCSORGRIGHT
 10
0.0
 20
0.0
 30
0.0
  9
$PUCSORGFRONT
 10
0.0
 20
0.0
 30
0.0
  9
$PUCSORGBACK
 10
0.0
 20
0.0
 30
0.0
  9
$USERI1
 70
     0
  9
$USERI2
 70
     0
  9
$USERI3
 70
     0
  9
$USERI4
 70
     0
  9
$USERI5
 70
     0
  9
$USERR1
 40
0.0
  9
$USERR2
 40
0.0
  9
$USERR3
 40
0.0
  9
$USERR4
 40
0.0
  9
$USERR5
 40
0.0
  9
$WORLDVIEW
 70
     1
  9
$SHADEDGE
 70
     3
  9
$SHADEDIF
 70
    70
  9
$TILEMODE
 70
     1
  9
$MAXACTVP
 70
    64
  9
$PINSBASE
 10
0.0
 20
0.0
 30
0.0
  9
$PLIMCHECK
 70
     0
  9
$PEXTMIN
 10
1.0000000000E+20
 20
1.0000000000E+20
 30
1.0000000000E+20
  9
$PEXTMAX
 10
-1.0000000000E+20
 20
-1.0000000000E+20
 30
-1.0000000000E+20
  9
$PLIMMIN
 10
0.0
 20
0.0
  9
$PLIMMAX
 10
420.0
 20
297.0
  9
$UNITMODE
 70
     0
  9
$VISRETAIN
 70
     1
  9
$PLINEGEN
 70
     0
  9
$PSLTSCALE
 70
     1
  9
$TREEDEPTH
 70
  3020
  9
$CMLSTYLE
  2
Standard
  9
$CMLJUST
 70
     0
  9
$CMLSCALE
 40
20.0
  9
$PROXYGRAPHICS
 70
     1
  9
$MEASUREMENT
 70
     1
  9
$CELWEIGHT
370
    -1
  9
$ENDCAPS
280
     0
  9
$JOINSTYLE
280
     0
  9
$LWDISPLAY
290
     1
  9
$INSUNITS
 70
     4
  9
$HYPERLINKBASE
  1

  9
$STYLESHEET
  1

  9
$XEDIT
290
     1
  9
$CEPSNTYPE
380
     0
  9
$PSTYLEMODE
290
     1
  9
$FINGERPRINTGUID
  2
{62459779-0cea-4ae8-9f94-c4ffa25b407a}
  9
$VERSIONGUID
  2
{FAEB1C32-E019-11D5-929B-00C0DF256EC4}
  9
$EXTNAMES
290
     1
  9
$PSVPSCALE
 40
0.0
  9
$OLESTARTUP
290
     0
  0
ENDSEC
  0
SECTION
  2
CLASSES
  0
CLASS
  1
ACDBDICTIONARYWDFLT
  2
AcDbDictionaryWithDefault
  3
ObjectDBX Classes
 90
        0
280
     0
281
     0
  0
CLASS
  1
VISUALSTYLE
  2
AcDbVisualStyle
  3
ObjectDBX Classes
 90
     4095
280
     0
281
     0
  0
CLASS
  1
MATERIAL
  2
AcDbMaterial
  3
ObjectDBX Classes
 90
     1153
280
     0
281
     0
  0
CLASS
  1
SCALE
  2
AcDbScale
  3
ObjectDBX Classes
 90
     1153
280
     0
281
     0
  0
CLASS
  1
TABLESTYLE
  2
AcDbTableStyle
  3
ObjectDBX Classes
 90
     4095
280
     0
281
     0
  0
CLASS
  1
MLEADERSTYLE
  2
AcDbMLeaderStyle
  3
ACDB_MLEADERSTYLE_CLASS
 90
     4095
280
     0
281
     0
  0
CLASS
  1
SUN
  2
AcDbSun
  3
SCENEOE
 90
     1153
280
     0
281
     0
  0
CLASS
  1
ACDBPLACEHOLDER
  2
AcDbPlaceHolder
  3
ObjectDBX Classes
 90
        0
280
     0
281
     0
  0
CLASS
  1
LAYOUT
  2
AcDbLayout
  3
ObjectDBX Classes
 90
        0
280
     0
281
     0
  0
ENDSEC
  0
SECTION
  2
TABLES
  0
TABLE
  2
VPORT
  5
8
330
0
100
AcDbSymbolTable
 70
     1
  0
VPORT
  5
29
330
8
100
AcDbSymbolTableRecord
100
AcDbViewportTableRecord
  2
*Active
 70
     0
 10
0.0
 20
0.0
 11
1.0
 21
1.0
 12
139.7
 22
107.95
 13
0.0
 23
0.0
 14
10.0
 24
10.0
 15
10.0
 25
10.0
 16
0.0
 26
0.0
 36
1.0
 17
0.0
 27
0.0
 37
0.0
 40
215.9
 41
1.2941176471
 42
50.0
 43
0.0
 44
0.0
 50
0.0
 51
0.0
 71
     0
 72
  2000
 73
     1
 74
     3
 75
     0
 76
     0
 77
     0
 78
     0
281
     0
 65
     1
110
0.0
120
0.0
130
0.0
111
1.0
121
0.0
131
0.0
112
0.0
122
1.0
132
0.0
 79
     0
146
0.0
  0
ENDTAB
  0
TABLE
  2
LTYPE
  5
5
330
0
100
AcDbSymbolTable
 70
     6
  0
LTYPE
  5
14
330
5
100
AcDbSymbolTableRecord
100
AcDbLinetypeTableRecord
  2
ByBlock
 70
     0
  3

 72
    65
 73
     0
 40
0.0
  0
LTYPE
  5
15
330
5
100
AcDbSymbolTableRecord
100
AcDbLinetypeTableRecord
  2
ByLayer
 70
     0
  3

 72
    65
 73
     0
 40
0.0
  0
LTYPE
  5
16
330
5
100
AcDbSymbolTableRecord
100
AcDbLinetypeTableRecord
  2
Continuous
 70
     0
  3
Solid line
 72
    65
 73
     0
 40
0.0
  0
LTYPE
  5
6E
330
5
100
AcDbSymbolTableRecord
100
AcDbLinetypeTableRecord
  2
HIDDEN
 70
     0
  3
Hidden __ __ __ __ __ __ __ __ __ __ __ __ __ __
 72
    65
 73
     2
 40
1.905
 49
1.27
 74
     0
 49
-0.635
 74
     0
  0
LTYPE
  5
6F
330
5
100
AcDbSymbolTableRecord
100
AcDbLinetypeTableRecord
  2
PHANTOM
 70
     0
  3
Phantom ______  __  __  ______  __  __  ______
 72
    65
 73
     6
 40
12.7
 49
6.35
 74
     0
 49
-1.27
 74
     0
 49
1.27
 74
     0
 49
-1.27
 74
     0
 49
1.27
 74
     0
 49
-1.27
 74
     0
  0
LTYPE
  5
70
330
5
100
AcDbSymbolTableRecord
100
AcDbLinetypeTableRecord
  2
CENTER
 70
     0
  3
Center ____ _ ____ _ ____ _ ____ _ ____ _ ____
 72
    65
 73
     4
 40
10.16
 49
6.35
 74
     0
 49
-1.27
 74
     0
 49
1.27
 74
     0
 49
-1.27
 74
     0
  0
LTYPE
  5
71
330
5
100
AcDbSymbolTableRecord
100
AcDbLinetypeTableRecord
  2
CENTERX2
 70
     0
  3
Center (2x) ________  __  ________  __  _____
 72
    65
 73
     4
 40
20.32
 49
12.7
 74
     0
 49
-2.54
 74
     0
 49
2.54
 74
     0
 49
-2.54
 74
     0
  0
LTYPE
  5
72
330
5
100
AcDbSymbolTableRecord
100
AcDbLinetypeTableRecord
  2
DOT2
 70
     0
  3
Dot (.5x) ........................................
 72
    65
 73
     2
 40
0.635
 49
0.0
 74
     0
 49
-0.635
 74
     0
  0
ENDTAB
  0
TABLE
  2
LAYER
  5
2
330
0
100
AcDbSymbolTable
 70
    17
  0
LAYER
  5
10
330
2
100
AcDbSymbolTableRecord
100
AcDbLayerTableRecord
  2
0
 70
     0
 62
     7
  6
Continuous
370
    -3
390
F
  0
LAYER
  5
73
330
2
100
AcDbSymbolTableRecord
100
AcDbLayerTableRecord
  2
FORMAT
 70
     0
 62
     7
  6
Continuous
370
    -3
390
F
  0
LAYER
  5
74
330
2
100
AcDbSymbolTableRecord
100
AcDbLayerTableRecord
  2
YARDIMCI_GEOMETRI
 70
     0
 62
    -6
  6
Continuous
290
     0
370
    -3
390
F
  0
LAYER
  5
75
330
2
100
AcDbSymbolTableRecord
100
AcDbLayerTableRecord
  2
SAYFA_CERCEVESI
 70
     0
 62
     7
  6
Continuous
370
    25
390
F
  0
LAYER
  5
76
330
2
100
AcDbSymbolTableRecord
100
AcDbLayerTableRecord
  2
ANTET
 70
     0
 62
     7
  6
Continuous
370
    -3
390
F
  0
LAYER
  5
77
330
2
100
AcDbSymbolTableRecord
100
AcDbLayerTableRecord
  2
OLCU
 70
     0
 62
   150
  6
Continuous
370
    -3
390
F
  0
LAYER
  5
78
330
2
100
AcDbSymbolTableRecord
100
AcDbLayerTableRecord
  2
METIN
 70
     0
 62
    96
  6
Continuous
370
    -3
390
F
  0
LAYER
  5
79
330
2
100
AcDbSymbolTableRecord
100
AcDbLayerTableRecord
  2
BALON
 70
     0
 62
     5
  6
Continuous
370
    -3
390
F
  0
LAYER
  5
7A
330
2
100
AcDbSymbolTableRecord
100
AcDbLayerTableRecord
  2
VURGU
 70
     0
 62
     7
  6
Continuous
370
    -3
390
F
  0
LAYER
  5
7B
330
2
100
AcDbSymbolTableRecord
100
AcDbLayerTableRecord
  2
SILIK
 70
     0
 62
     7
  6
Continuous
370
    -3
390
F
  0
LAYER
  5
7C
330
2
100
AcDbSymbolTableRecord
100
AcDbLayerTableRecord
  2
MODEL
 70
     0
 62
     7
  6
Continuous
370
    -3
390
F
  0
LAYER
  5
7D
330
2
100
AcDbSymbolTableRecord
100
AcDbLayerTableRecord
  2
DETAYLANDıRMA
 70
     0
 62
   190
  6
Continuous
370
    -3
390
F
  0
LAYER
  5
7E
330
2
100
AcDbSymbolTableRecord
100
AcDbLayerTableRecord
  2
TOLERANS
 70
     0
 62
   230
  6
Continuous
370
    -3
390
F
  0
LAYER
  5
7F
330
2
100
AcDbSymbolTableRecord
100
AcDbLayerTableRecord
  2
MERKEZ_CIZGILERI
 70
     0
 62
    30
  6
Continuous
370
    -3
390
F
  0
LAYER
  5
80
330
2
100
AcDbSymbolTableRecord
100
AcDbLayerTableRecord
  2
KESIT-DETAY_CIZGILERI
 70
     0
 62
     7
  6
Continuous
370
    -3
390
F
  0
LAYER
  5
81
330
2
100
AcDbSymbolTableRecord
100
AcDbLayerTableRecord
  2
\U+041E\U+0421\U+0415\U+0412\U+042B\U+0415
 70
     0
 62
     7
  6
Continuous
370
    -3
390
F
  0
LAYER
  5
82
330
2
100
AcDbSymbolTableRecord
100
AcDbLayerTableRecord
  2
\U+0412\U+041E\U+0414\U+042F\U+041D\U+042B\U+0415_\U+0417\U+041D\U+0410\U+041A\U+0418
 70
     0
 62
    11
  6
Continuous
370
    -3
390
F
  0
ENDTAB
  0
TABLE
  2
STYLE
  5
3
330
0
100
AcDbSymbolTable
 70
     1
  0
STYLE
  5
11
330
3
100
AcDbSymbolTableRecord
100
AcDbTextStyleTableRecord
  2
Standard
 70
     0
 40
0.0
 41
1.0
 50
0.0
 71
     0
 42
3.5
  3
txt
  4

  0
ENDTAB
  0
TABLE
  2
VIEW
  5
6
330
0
100
AcDbSymbolTable
 70
     0
  0
ENDTAB
  0
TABLE
  2
UCS
  5
7
330
0
100
AcDbSymbolTable
 70
     0
  0
ENDTAB
  0
TABLE
  2
APPID
  5
9
330
0
100
AcDbSymbolTable
 70
     1
  0
APPID
  5
12
330
9
100
AcDbSymbolTableRecord
100
AcDbRegAppTableRecord
  2
ACAD
 70
     0
  0
ENDTAB
  0
TABLE
  2
DIMSTYLE
  5
A
330
0
100
AcDbSymbolTable
 70
     1
100
AcDbDimStyleTable
  0
DIMSTYLE
105
27
330
A
100
AcDbSymbolTableRecord
100
AcDbDimStyleTableRecord
  2
ISO-25
 70
     0
 41
2.5
 42
0.625
 43
3.75
 44
1.25
 73
     0
 74
     0
 77
     1
 78
     8
140
2.5
141
2.5
143
0.0393700787
147
0.625
171
     3
172
     1
178
     0
271
     2
272
     2
274
     3
278
    44
283
     0
284
     8
340
11
  0
ENDTAB
  0
TABLE
  2
BLOCK_RECORD
  5
1
330
0
100
AcDbSymbolTable
 70
     4
  0
BLOCK_RECORD
  5
1F
330
1
100
AcDbSymbolTableRecord
100
AcDbBlockTableRecord
  2
*Model_Space
340
22
  0
BLOCK_RECORD
  5
1B
330
1
100
AcDbSymbolTableRecord
100
AcDbBlockTableRecord
  2
*Paper_Space
340
1E
  0
BLOCK_RECORD
  5
23
330
1
100
AcDbSymbolTableRecord
100
AcDbBlockTableRecord
  2
*Paper_Space0
340
26
  0
BLOCK_RECORD
  5
93
330
1
100
AcDbSymbolTableRecord
100
AcDbBlockTableRecord
  2
SW_CENTERMARKSYMBOL_0
340
0
102
{BLKREFS
331
9E
102
}
  0
BLOCK_RECORD
  5
E9
330
1
100
AcDbSymbolTableRecord
100
AcDbBlockTableRecord
  2
SW_CENTERMARKSYMBOL_1
340
0
102
{BLKREFS
331
F4
102
}
  0
BLOCK_RECORD
  5
F5
330
1
100
AcDbSymbolTableRecord
100
AcDbBlockTableRecord
  2
SW_CENTERMARKSYMBOL_2
340
0
102
{BLKREFS
331
100
102
}
  0
ENDTAB
  0
ENDSEC
  0
SECTION
  2
BLOCKS
  0
BLOCK
  5
20
330
1F
100
AcDbEntity
  8
0
100
AcDbBlockBegin
  2
*Model_Space
 70
     0
 10
0.0
 20
0.0
 30
0.0
  3
*Model_Space
  1

  0
ENDBLK
  5
21
330
1F
100
AcDbEntity
  8
0
100
AcDbBlockEnd
  0
BLOCK
  5
1C
330
1B
100
AcDbEntity
 67
     1
  8
0
100
AcDbBlockBegin
  2
*Paper_Space
 70
     0
 10
0.0
 20
0.0
 30
0.0
  3
*Paper_Space
  1

  0
ENDBLK
  5
1D
330
1B
100
AcDbEntity
 67
     1
  8
0
100
AcDbBlockEnd
  0
BLOCK
  5
24
330
23
100
AcDbEntity
  8
0
100
AcDbBlockBegin
  2
*Paper_Space0
 70
     0
 10
0.0
 20
0.0
 30
0.0
  3
*Paper_Space0
  1

  0
ENDBLK
  5
25
330
23
100
AcDbEntity
  8
0
100
AcDbBlockEnd
  0
BLOCK
  5
94
330
93
100
AcDbEntity
  8
0
100
AcDbBlockBegin
  2
SW_CENTERMARKSYMBOL_0
 70
     0
 10
0.0
 20
0.0
 30
0.0
  3
SW_CENTERMARKSYMBOL_0
  1

  0
LINE
  5
96
330
93
100
AcDbEntity
  8
FORMAT
 62
     0
100
AcDbLine
 10
0.0
 20
0.0
 30
0.0
 11
0.0
 21
2.5
 31
0.0
  0
LINE
  5
97
330
93
100
AcDbEntity
  8
FORMAT
 62
     0
100
AcDbLine
 10
0.0
 20
0.0
 30
0.0
 11
-2.5
 21
0.0
 31
0.0
  0
LINE
  5
98
330
93
100
AcDbEntity
  8
FORMAT
 62
     0
100
AcDbLine
 10
0.0
 20
0.0
 30
0.0
 11
0.0
 21
-2.5
 31
0.0
  0
LINE
  5
99
330
93
100
AcDbEntity
  8
FORMAT
 62
     0
100
AcDbLine
 10
0.0
 20
0.0
 30
0.0
 11
2.5
 21
0.0
 31
0.0
  0
LINE
  5
9A
330
93
100
AcDbEntity
  8
FORMAT
 62
     0
100
AcDbLine
 10
0.0
 20
5.0
 30
0.0
 11
0.0
 21
252.5
 31
0.0
  0
LINE
  5
9B
330
93
100
AcDbEntity
  8
FORMAT
 62
     0
100
AcDbLine
 10
-5.0
 20
0.0
 30
0.0
 11
-252.5
 21
0.0
 31
0.0
  0
LINE
  5
9C
330
93
100
AcDbEntity
  8
FORMAT
 62
     0
100
AcDbLine
 10
0.0
 20
-5.0
 30
0.0
 11
0.0
 21
-252.5
 31
0.0
  0
LINE
  5
9D
330
93
100
AcDbEntity
  8
FORMAT
 62
     0
100
AcDbLine
 10
5.0
 20
0.0
 30
0.0
 11
252.5
 21
0.0
 31
0.0
  0
ENDBLK
  5
95
330
93
100
AcDbEntity
  8
0
100
AcDbBlockEnd
  0
BLOCK
  5
EA
330
E9
100
AcDbEntity
  8
0
100
AcDbBlockBegin
  2
SW_CENTERMARKSYMBOL_1
 70
     0
 10
0.0
 20
0.0
 30
0.0
  3
SW_CENTERMARKSYMBOL_1
  1

  0
LINE
  5
EC
330
E9
100
AcDbEntity
  8
FORMAT
 62
     0
100
AcDbLine
 10
0.0
 20
0.0
 30
0.0
 11
0.0
 21
2.5
 31
0.0
  0
LINE
  5
ED
330
E9
100
AcDbEntity
  8
FORMAT
 62
     0
100
AcDbLine
 10
0.0
 20
0.0
 30
0.0
 11
-2.5
 21
0.0
 31
0.0
  0
LINE
  5
EE
330
E9
100
AcDbEntity
  8
FORMAT
 62
     0
100
AcDbLine
 10
0.0
 20
0.0
 30
0.0
 11
0.0
 21
-2.5
 31
0.0
  0
LINE
  5
EF
330
E9
100
AcDbEntity
  8
FORMAT
 62
     0
100
AcDbLine
 10
0.0
 20
0.0
 30
0.0
 11
2.5
 21
0.0
 31
0.0
  0
LINE
  5
F0
330
E9
100
AcDbEntity
  8
FORMAT
 62
     0
100
AcDbLine
 10
0.0
 20
5.0
 30
0.0
 11
0.0
 21
9.5
 31
0.0
  0
LINE
  5
F1
330
E9
100
AcDbEntity
  8
FORMAT
 62
     0
100
AcDbLine
 10
-5.0
 20
0.0
 30
0.0
 11
-9.5
 21
0.0
 31
0.0
  0
LINE
  5
F2
330
E9
100
AcDbEntity
  8
FORMAT
 62
     0
100
AcDbLine
 10
0.0
 20
-5.0
 30
0.0
 11
0.0
 21
-9.5
 31
0.0
  0
LINE
  5
F3
330
E9
100
AcDbEntity
  8
FORMAT
 62
     0
100
AcDbLine
 10
5.0
 20
0.0
 30
0.0
 11
9.5
 21
0.0
 31
0.0
  0
ENDBLK
  5
EB
330
E9
100
AcDbEntity
  8
0
100
AcDbBlockEnd
  0
BLOCK
  5
F6
330
F5
100
AcDbEntity
  8
0
100
AcDbBlockBegin
  2
SW_CENTERMARKSYMBOL_2
 70
     0
 10
0.0
 20
0.0
 30
0.0
  3
SW_CENTERMARKSYMBOL_2
  1

  0
LINE
  5
F8
330
F5
100
AcDbEntity
  8
FORMAT
 62
     0
100
AcDbLine
 10
0.0
 20
0.0
 30
0.0
 11
0.0
 21
2.5
 31
0.0
  0
LINE
  5
F9
330
F5
100
AcDbEntity
  8
FORMAT
 62
     0
100
AcDbLine
 10
0.0
 20
0.0
 30
0.0
 11
-2.5
 21
0.0
 31
0.0
  0
LINE
  5
FA
330
F5
100
AcDbEntity
  8
FORMAT
 62
     0
100
AcDbLine
 10
0.0
 20
0.0
 30
0.0
 11
0.0
 21
-2.5
 31
0.0
  0
LINE
  5
FB
330
F5
100
AcDbEntity
  8
FORMAT
 62
     0
100
AcDbLine
 10
0.0
 20
0.0
 30
0.0
 11
2.5
 21
0.0
 31
0.0
  0
LINE
  5
FC
330
F5
100
AcDbEntity
  8
FORMAT
 62
     0
100
AcDbLine
 10
0.0
 20
5.0
 30
0.0
 11
0.0
 21
9.5
 31
0.0
  0
LINE
  5
FD
330
F5
100
AcDbEntity
  8
FORMAT
 62
     0
100
AcDbLine
 10
-5.0
 20
0.0
 30
0.0
 11
-9.5
 21
0.0
 31
0.0
  0
LINE
  5
FE
330
F5
100
AcDbEntity
  8
FORMAT
 62
     0
100
AcDbLine
 10
0.0
 20
-5.0
 30
0.0
 11
0.0
 21
-9.5
 31
0.0
  0
LINE
  5
FF
330
F5
100
AcDbEntity
  8
FORMAT
 62
     0
100
AcDbLine
 10
5.0
 20
0.0
 30
0.0
 11
9.5
 21
0.0
 31
0.0
  0
ENDBLK
  5
F7
330
F5
100
AcDbEntity
  8
0
100
AcDbBlockEnd
  0
ENDSEC
  0
SECTION
  2
ENTITIES
  0
LINE
  5
83
330
1F
100
AcDbEntity
  8
0
  6
Continuous
 62
     7
370
    25
100
AcDbLine
 10
102.6070913462
 20
404.2578654293
 30
0.0
 11
102.6070913462
 21
405.8949519231
 31
0.0
  0
LINE
  5
84
330
1F
100
AcDbEntity
  8
0
  6
Continuous
 62
     7
370
    25
100
AcDbLine
 10
88.6070913462
 20
405.8949519231
 30
0.0
 11
88.6070913462
 21
402.6845384722
 31
0.0
  0
LINE
  5
85
330
1F
100
AcDbEntity
  8
0
  6
Continuous
 62
     7
370
    25
100
AcDbLine
 10
172.6070913462
 20
402.6836414644
 30
0.0
 11
172.6070913462
 21
405.8949519231
 31
0.0
  0
LINE
  5
86
330
1F
100
AcDbEntity
  8
0
  6
Continuous
 62
     7
370
    25
100
AcDbLine
 10
158.6070913462
 20
405.8949519231
 30
0.0
 11
158.6070913462
 21
404.2630503339
 31
0.0
  0
CIRCLE
  5
87
330
1F
100
AcDbEntity
  8
0
  6
Continuous
 62
     7
370
    25
100
AcDbCircle
 10
130.6070913462
 20
95.8949519231
 30
0.0
 40
309.5
  0
ARC
  5
88
330
1F
100
AcDbEntity
  8
0
  6
Continuous
 62
     7
370
    25
100
AcDbCircle
 10
130.6070913462
 20
95.8949519231
 30
0.0
 40
310.4999999999994
100
AcDbArc
 50
97.7739843355
 51
180.0
  0
ARC
  5
89
330
1F
100
AcDbEntity
  8
0
  6
Continuous
 62
     7
370
    25
100
AcDbCircle
 10
130.6070913462
 20
95.8949519231
 30
0.0
 40
310.4999999999994
100
AcDbArc
 50
84.8262024614
 51
95.1737975386
  0
ARC
  5
8A
330
1F
100
AcDbEntity
  8
0
  6
Continuous
 62
     7
370
    25
100
AcDbCircle
 10
130.6070913462
 20
95.8949519231
 30
0.0
 40
310.4999999999994
100
AcDbArc
 50
180.0
 51
82.2260156645
  0
SPLINE
  5
8B
330
1F
100
AcDbEntity
  8
0
  6
Continuous
 62
     7
370
    25
100
AcDbSpline
210
0.0
220
0.0
230
1.0
 70
     8
 71
     3
 72
    15
 73
    11
 74
     0
 42
0.00000001
 43
0.00000001
 40
0.0
 40
0.0
 40
0.0
 40
0.0
 40
0.1341596151483319
 40
0.2682996185483826
 40
0.40292168580502
 40
0.5380598113092003
 40
0.673255160103945
 40
0.8078539056234514
 40
0.9413884198511399
 40
1.0
 40
1.0
 40
1.0
 40
1.0
 10
101.2863671137738
 20
404.0955725444375
 30
0.0
 10
100.7620590567842
 20
404.0382662538103
 30
0.0
 10
99.71351958731272
 20
403.9236620497157
 30
0.0
 10
97.50700438364134
 20
403.6835376541229
 30
0.0
 10
95.12875386177346
 20
403.4157192778973
 30
0.0
 10
92.78944818792559
 20
403.1430106286381
 30
0.0
 10
90.75898849210479
 20
402.9004254498205
 30
0.0
 10
89.32843388207185
 20
402.7323312126597
 30
0.0
 10
88.60963826744599
 20
402.6552155087826
 30
0.0
 10
88.68171843376302
 20
402.6776845833938
 30
0.0
 10
88.70370551842868
 20
402.6845384722106
 30
0.0
  0
SPLINE
  5
8C
330
1F
100
AcDbEntity
  8
0
  6
Continuous
 62
     7
370
    25
100
AcDbSpline
210
0.0
220
0.0
230
1.0
 70
     8
 71
     3
 72
    10
 73
     6
 74
     0
 42
0.00000001
 43
0.00000001
 40
0.0
 40
0.0
 40
0.0
 40
0.0
 40
0.1290208148348346
 40
0.6663674338148473
 40
1.0
 40
1.0
 40
1.0
 40
1.0
 10
102.5352494838314
 20
404.2578654292992
 30
0.0
 10
102.5568535810568
 20
404.2577656056159
 30
0.0
 10
102.6684345445349
 20
404.2572500356922
 30
0.0
 10
102.1993029155733
 20
404.1985306745487
 30
0.0
 10
101.5392163110153
 20
404.124088109822
 30
0.0
 10
101.2863671137738
 20
404.0955725444375
 30
0.0
  0
SPLINE
  5
8D
330
1F
100
AcDbEntity
  8
0
  6
Continuous
 62
     7
370
    25
100
AcDbSpline
210
0.0
220
0.0
230
1.0
 70
     8
 71
     3
 72
    15
 73
    11
 74
     0
 42
0.00000001
 43
0.00000001
 40
0.0
 40
0.0
 40
0.0
 40
0.0
 40
0.1420603119994442
 40
0.2840945176630523
 40
0.4266906891926575
 40
0.5694001044011576
 40
0.7116580127576541
 40
0.853226938095166
 40
0.9941577087112409
 40
1.0
 40
1.0
 40
1.0
 40
1.0
 10
170.6961189772713
 20
402.8724020871016
 30
0.0
 10
170.0966857844375
 20
402.9437985332676
 30
0.0
 10
168.8979295562376
 20
403.0865783051187
 30
0.0
 10
166.5747685838667
 20
403.3595380659148
 30
0.0
 10
164.1777882703714
 20
403.6312031818983
 30
0.0
 10
161.9346898237939
 20
403.8771703229334
 30
0.0
 10
160.090506543629
 20
404.0761372769956
 30
0.0
 10
158.9666214222012
 20
404.2043903497512
 30
0.0
 10
158.4873802121245
 20
404.2661547322393
 30
0.0
 10
158.617558090761
 20
404.2631691738547
 30
0.0
 10
158.6227398119602
 20
404.2630503339156
 30
0.0
  0
SPLINE
  5
8E
330
1F
100
AcDbEntity
  8
0
  6
Continuous
 62
     7
370
    25
100
AcDbSpline
210
0.0
220
0.0
230
1.0
 70
     8
 71
     3
 72
    10
 73
     6
 74
     0
 42
0.00000001
 43
0.00000001
 40
0.0
 40
0.0
 40
0.0
 40
0.0
 40
0.2873883406836839
 40
0.7281848768852269
 40
1.0
 40
1.0
 40
1.0
 40
1.0
 10
172.5175612253207
 20
402.6836414644206
 30
0.0
 10
172.5202271760908
 20
402.6775787788364
 30
0.0
 10
172.5269821649283
 20
402.6622171397901
 30
0.0
 10
171.797588239555
 20
402.7427707440988
 30
0.0
 10
171.0002512992256
 20
402.8366089127521
 30
0.0
 10
170.6961189772713
 20
402.8724020871016
 30
0.0
  0
CIRCLE
  5
8F
330
1F
100
AcDbEntity
  8
0
  6
Continuous
 62
     7
370
    25
100
AcDbCircle
 10
130.6070913462
 20
95.8949519231
 30
0.0
 40
250.0
  0
LINE
  5
90
330
1F
100
AcDbEntity
  8
0
  6
Continuous
 62
     7
370
    25
100
AcDbLine
 10
95.6070913462
 20
405.8949519231
 30
0.0
 11
88.6070913462
 21
405.8949519231
 31
0.0
  0
LINE
  5
91
330
1F
100
AcDbEntity
  8
0
  6
Continuous
 62
     7
370
    25
100
AcDbLine
 10
102.6070913462
 20
405.8949519231
 30
0.0
 11
95.6070913462
 21
405.8949519231
 31
0.0
  0
LINE
  5
92
330
1F
100
AcDbEntity
  8
0
  6
Continuous
 62
     7
370
    25
100
AcDbLine
 10
172.6070913462
 20
405.8949519231
 30
0.0
 11
158.6070913462
 21
405.8949519231
 31
0.0
  0
INSERT
  5
9E
330
1F
100
AcDbEntity
  8
FORMAT
 62
     7
100
AcDbBlockReference
  2
SW_CENTERMARKSYMBOL_0
 10
130.6070913462
 20
95.8949519231
 30
0.0
  0
ARC
  5
9F
330
1F
100
AcDbEntity
  8
0
  6
Continuous
 62
     7
370
    25
100
AcDbCircle
 10
927.9023542502
 20
-13622.2300480771
 30
0.0
 40
14028.62500000019
100
AcDbArc
 50
90.0
 51
90.6065157608
  0
LINE
  5
A0
330
1F
100
AcDbEntity
  8
0
  6
Continuous
 62
     7
370
    25
100
AcDbLine
 10
765.4023542502
 20
405.4537643215
 30
0.0
 11
760.4023542502
 21
405.3949519231
 31
0.0
  0
ARC
  5
A1
330
1F
100
AcDbEntity
  8
0
  6
Continuous
 62
     7
370
    25
100
AcDbCircle
 10
927.9023542502
 20
13814.0199519233
 30
0.0
 40
14028.62500000019
100
AcDbArc
 50
269.3158794173
 51
270.0
  0
LINE
  5
A2
330
1F
100
AcDbEntity
  8
0
  6
Continuous
 62
     7
370
    25
100
AcDbLine
 10
927.9023542502
 20
-214.6050480769
 30
0.0
 11
952.9023542502
 21
-214.6050480769
 31
0.0
  0
LINE
  5
A3
330
1F
100
AcDbEntity
  8
0
  6
Continuous
 62
     7
370
    25
100
AcDbLine
 10
952.9023542502
 20
406.3949519231
 30
0.0
 11
927.9023542502
 21
406.3949519231
 31
0.0
  0
LINE
  5
A4
330
1F
100
AcDbEntity
  8
0
  6
Continuous
 62
     7
370
    25
100
AcDbLine
 10
1120.4023542502
 20
405.3949519231
 30
0.0
 11
1115.4023542502
 21
405.4537643215
 31
0.0
  0
ARC
  5
A5
330
1F
100
AcDbEntity
  8
0
  6
Continuous
 62
     7
370
    25
100
AcDbCircle
 10
952.9023542502
 20
-13622.2300480771
 30
0.0
 40
14028.62500000019
100
AcDbArc
 50
89.3934842392
 51
90.0
  0
ARC
  5
A6
330
1F
100
AcDbEntity
  8
0
  6
Continuous
 62
     7
370
    25
100
AcDbCircle
 10
952.9023542502
 20
13814.0199519233
 30
0.0
 40
14028.62500000019
100
AcDbArc
 50
270.0
 51
270.6841205827
  0
LINE
  5
A7
330
1F
100
AcDbEntity
  8
0
  6
Continuous
 62
     7
370
    25
100
AcDbLine
 10
779.4023542502
 20
403.6225038549
 30
0.0
 11
779.4023542502
 21
405.8949519231
 31
0.0
  0
LINE
  5
A8
330
1F
100
AcDbEntity
  8
0
  6
Continuous
 62
     7
370
    25
100
AcDbLine
 10
765.4023542502
 20
405.8949519231
 30
0.0
 11
765.4023542502
 21
403.4675051256
 31
0.0
  0
LINE
  5
A9
330
1F
100
AcDbEntity
  8
0
  6
Continuous
 62
     7
370
    25
100
AcDbLine
 10
1115.4023542502
 20
403.4673479436
 30
0.0
 11
1115.4023542502
 21
405.8949519231
 31
0.0
  0
LINE
  5
AA
330
1F
100
AcDbEntity
  8
0
  6
Continuous
 62
     7
370
    25
100
AcDbLine
 10
1101.4023542502
 20
405.8949519231
 30
0.0
 11
1101.4023542502
 21
403.6229814986
 31
0.0
  0
LINE
  5
AB
330
1F
100
AcDbEntity
  8
0
  6
Continuous
 62
     7
370
    25
100
AcDbLine
 10
760.4023542502
 20
95.8949519231
 30
0.0
 11
760.4023542502
 21
405.3949519231
 31
0.0
  0
LINE
  5
AC
330
1F
100
AcDbEntity
  8
0
  6
Continuous
 62
     7
370
    25
100
AcDbLine
 10
760.4023542502
 20
-213.6050480769
 30
0.0
 11
760.4023542502
 21
95.8949519231
 31
0.0
  0
SPLINE
  5
AD
330
1F
100
AcDbEntity
  8
0
  6
Continuous
 62
     7
370
    25
100
AcDbSpline
210
0.0
220
0.0
230
1.0
 70
     8
 71
     3
 72
    18
 73
    14
 74
     0
 42
0.00000001
 43
0.00000001
 40
0.0
 40
0.0
 40
0.0
 40
0.0
 40
0.0172442173996783
 40
0.1253826795610963
 40
0.2338559863827162
 40
0.3421110041028244
 40
0.4495951482283016
 40
0.5561589658799964
 40
0.6622147827274378
 40
0.7684765062166797
 40
0.8754973022657434
 40
0.9833585861990126
 40
0.9999999999999999
 40
0.9999999999999999
 40
0.9999999999999999
 40
0.9999999999999999
 10
779.3491168212051
 20
403.6225038548804
 30
0.0
 10
779.3660270565524
 20
403.6088872502222
 30
0.0
 10
779.4889813530986
 20
403.5098809376127
 30
0.0
 10
778.9465707088655
 20
403.298149318558
 30
0.0
 10
777.7204973086205
 20
403.0287866738189
 30
0.0
 10
775.8131307896516
 20
402.8094077311765
 30
0.0
 10
773.5441151222775
 20
402.6784417476698
 30
0.0
 10
771.1528165361432
 20
402.6544360066196
 30
0.0
 10
768.9184461633507
 20
402.7383247801892
 30
0.0
 10
767.0524653796105
 20
402.9148828834038
 30
0.0
 10
765.8496451954164
 20
403.1549915325451
 30
0.0
 10
765.31344073125
 20
403.3530214968601
 30
0.0
 10
765.4378660473408
 20
403.4540070815075
 30
0.0
 10
765.4544971180732
 20
403.4675051255871
 30
0.0
  0
LINE
  5
AE
330
1F
100
AcDbEntity
  8
0
  6
Continuous
 62
     7
370
    25
100
AcDbLine
 10
1120.4023542502
 20
95.8949519231
 30
0.0
 11
1120.4023542502
 21
405.3949519231
 31
0.0
  0
LINE
  5
AF
330
1F
100
AcDbEntity
  8
0
  6
Continuous
 62
     7
370
    25
100
AcDbLine
 10
1120.4023542502
 20
-213.6050480769
 30
0.0
 11
1120.4023542502
 21
95.8949519231
 31
0.0
  0
SPLINE
  5
B0
330
1F
100
AcDbEntity
  8
0
  6
Continuous
 62
     7
370
    25
100
AcDbSpline
210
0.0
220
0.0
230
1.0
 70
     8
 71
     3
 72
    18
 73
    14
 74
     0
 42
0.00000001
 43
0.00000001
 40
0.0
 40
0.0
 40
0.0
 40
0.0
 40
0.0212448159407241
 40
0.1295403061001752
 40
0.2378816532246915
 40
0.3457449010424308
 40
0.4527553070069888
 40
0.5590037066854047
 40
0.6650631947288437
 40
0.7716404612190976
 40
0.8791266349201509
 40
0.9873753196709809
 40
1.0
 40
1.0
 40
1.0
 40
1.0
 10
1115.339416468347
 20
403.4673479435515
 30
0.0
 10
1115.359006958081
 20
403.4500654927493
 30
0.0
 10
1115.478460006956
 20
403.3446857157093
 30
0.0
 10
1114.913829783875
 20
403.1420000018149
 30
0.0
 10
1113.657090148708
 20
402.9016739256647
 30
0.0
 10
1111.734405325786
 20
402.7283773033108
 30
0.0
 10
1109.462132829948
 20
402.6521654904479
 30
0.0
 10
1107.077448422876
 20
402.6852215065681
 30
0.0
 10
1104.854278285474
 20
402.8218882138675
 30
0.0
 10
1103.001005796893
 20
403.0424673922096
 30
0.0
 10
1101.821773287343
 20
403.3107958697988
 30
0.0
 10
1101.302030112423
 20
403.5181411950799
 30
0.0
 10
1101.43030249765
 20
403.613066931592
 30
0.0
 10
1101.443699972416
 20
403.6229814986073
 30
0.0
  0
LINE
  5
B1
330
1F
100
AcDbEntity
  8
0
  6
Continuous
 62
     7
370
    25
100
AcDbLine
 10
779.4023542502
 20
405.8949519231
 30
0.0
 11
765.4023542502
 21
405.8949519231
 31
0.0
  0
LINE
  5
B2
330
1F
100
AcDbEntity
  8
0
  6
Continuous
 62
     7
370
    25
100
AcDbLine
 10
1115.4023542502
 20
405.8949519231
 30
0.0
 11
1101.4023542502
 21
405.8949519231
 31
0.0
  0
LINE
  5
B3
330
1F
100
AcDbEntity
  8
0
  6
Continuous
 62
     1
370
    25
100
AcDbLine
 10
927.9023542502
 20
95.8949519231
 30
0.0
 11
927.9023542502
 21
406.3949519231
 31
0.0
  0
LINE
  5
B4
330
1F
100
AcDbEntity
  8
0
  6
Continuous
 62
     1
370
    25
100
AcDbLine
 10
927.9023542502
 20
-214.6050480769
 30
0.0
 11
927.9023542502
 21
95.8949519231
 31
0.0
  0
LINE
  5
B5
330
1F
100
AcDbEntity
  8
0
  6
Continuous
 62
     1
370
    25
100
AcDbLine
 10
952.9023542502
 20
95.8949519231
 30
0.0
 11
952.9023542502
 21
406.3949519231
 31
0.0
  0
LINE
  5
B6
330
1F
100
AcDbEntity
  8
0
  6
Continuous
 62
     1
370
    25
100
AcDbLine
 10
952.9023542502
 20
-214.6050480769
 30
0.0
 11
952.9023542502
 21
95.8949519231
 31
0.0
  0
ARC
  5
B7
330
1F
100
AcDbEntity
  8
0
  6
Continuous
 62
     7
370
    25
100
AcDbCircle
 10
13848.7320913463
 20
794.8570109587
 30
0.0
 40
14028.62500000019
100
AcDbArc
 50
180.0
 51
180.6841205827
  0
ARC
  5
B8
330
1F
100
AcDbEntity
  8
0
  6
Continuous
 62
     7
370
    25
100
AcDbCircle
 10
-13587.517908654
 20
794.8570109587
 30
0.0
 40
14028.62500000019
100
AcDbArc
 50
359.3158794173
 51
0.0
  0
LINE
  5
B9
330
1F
100
AcDbEntity
  8
0
  6
Continuous
 62
     7
370
    25
100
AcDbLine
 10
441.1070913462
 20
794.8570109587
 30
0.0
 11
441.1070913462
 21
819.8570109587
 31
0.0
  0
LINE
  5
BA
330
1F
100
AcDbEntity
  8
0
  6
Continuous
 62
     7
370
    25
100
AcDbLine
 10
-179.8929086538
 20
819.8570109587
 30
0.0
 11
-179.8929086538
 21
794.8570109587
 31
0.0
  0
ARC
  5
BB
330
1F
100
AcDbEntity
  8
0
  6
Continuous
 62
     7
370
    25
100
AcDbCircle
 10
13848.7320913463
 20
819.8570109587
 30
0.0
 40
14028.62500000019
100
AcDbArc
 50
179.3158794173
 51
180.0
  0
ARC
  5
BC
330
1F
100
AcDbEntity
  8
0
  6
Continuous
 62
     7
370
    25
100
AcDbCircle
 10
-13587.517908654
 20
819.8570109587
 30
0.0
 40
14028.62500000019
100
AcDbArc
 50
0.0
 51
0.6841205827
  0
LINE
  5
BD
330
1F
100
AcDbEntity
  8
0
  6
Continuous
 62
     7
370
    25
100
AcDbLine
 10
440.1070913462
 20
627.3570109587
 30
0.0
 11
-178.8929086538
 21
627.3570109587
 31
0.0
  0
LINE
  5
BE
330
1F
100
AcDbEntity
  8
0
  6
Continuous
 62
     7
370
    25
100
AcDbLine
 10
440.1070913462
 20
987.3570109587
 30
0.0
 11
-178.8929086538
 21
987.3570109587
 31
0.0
  0
LINE
  5
BF
330
1F
100
AcDbEntity
  8
0
  6
Continuous
 62
     1
370
    25
100
AcDbLine
 10
441.1070913462
 20
794.8570109587
 30
0.0
 11
-179.8929086538
 21
794.8570109587
 31
0.0
  0
LINE
  5
C0
330
1F
100
AcDbEntity
  8
0
  6
Continuous
 62
     1
370
    25
100
AcDbLine
 10
441.1070913462
 20
819.8570109587
 30
0.0
 11
-179.8929086538
 21
819.8570109587
 31
0.0
  0
ARC
  5
C1
330
1F
100
AcDbEntity
  8
0
  6
Continuous
 62
     7
370
    25
100
AcDbCircle
 10
-692.7408286071
 20
13814.0199519233
 30
0.0
 40
14028.62500000019
100
AcDbArc
 50
270.0
 51
270.6841205827
  0
LINE
  5
C2
330
1F
100
AcDbEntity
  8
0
  6
Continuous
 62
     7
370
    25
100
AcDbLine
 10
-525.2408286071
 20
405.3949519231
 30
0.0
 11
-530.2408286071
 21
405.4537643215
 31
0.0
  0
ARC
  5
C3
330
1F
100
AcDbEntity
  8
0
  6
Continuous
 62
     7
370
    25
100
AcDbCircle
 10
-692.7408286071
 20
-13622.2300480771
 30
0.0
 40
14028.62500000019
100
AcDbArc
 50
89.3934842392
 51
90.0
  0
LINE
  5
C4
330
1F
100
AcDbEntity
  8
0
  6
Continuous
 62
     7
370
    25
100
AcDbLine
 10
-692.7408286071
 20
406.3949519231
 30
0.0
 11
-717.7408286071
 21
406.3949519231
 31
0.0
  0
LINE
  5
C5
330
1F
100
AcDbEntity
  8
0
  6
Continuous
 62
     7
370
    25
100
AcDbLine
 10
-717.7408286071
 20
-214.6050480769
 30
0.0
 11
-692.7408286071
 21
-214.6050480769
 31
0.0
  0
ARC
  5
C6
330
1F
100
AcDbEntity
  8
0
  6
Continuous
 62
     7
370
    25
100
AcDbCircle
 10
-717.7408286071
 20
13814.0199519233
 30
0.0
 40
14028.62500000019
100
AcDbArc
 50
269.3158794173
 51
270.0
  0
ARC
  5
C7
330
1F
100
AcDbEntity
  8
0
  6
Continuous
 62
     7
370
    25
100
AcDbCircle
 10
-717.7408286071
 20
-13622.2300480771
 30
0.0
 40
14028.62500000019
100
AcDbArc
 50
90.0
 51
90.6065157608
  0
LINE
  5
C8
330
1F
100
AcDbEntity
  8
0
  6
Continuous
 62
     7
370
    25
100
AcDbLine
 10
-880.2408286071
 20
405.4537643215
 30
0.0
 11
-885.2408286071
 21
405.3949519231
 31
0.0
  0
LINE
  5
C9
330
1F
100
AcDbEntity
  8
0
  6
Continuous
 62
     7
370
    25
100
AcDbLine
 10
-530.2408286071
 20
403.467210563
 30
0.0
 11
-530.2408286071
 21
405.8949519231
 31
0.0
  0
LINE
  5
CA
330
1F
100
AcDbEntity
  8
0
  6
Continuous
 62
     7
370
    25
100
AcDbLine
 10
-544.2408286071
 20
405.8949519231
 30
0.0
 11
-544.2408286071
 21
403.6213759729
 31
0.0
  0
LINE
  5
CB
330
1F
100
AcDbEntity
  8
0
  6
Continuous
 62
     7
370
    25
100
AcDbLine
 10
-866.2408286071
 20
403.621607759
 30
0.0
 11
-866.2408286071
 21
405.8949519231
 31
0.0
  0
LINE
  5
CC
330
1F
100
AcDbEntity
  8
0
  6
Continuous
 62
     7
370
    25
100
AcDbLine
 10
-880.2408286071
 20
405.8949519231
 30
0.0
 11
-880.2408286071
 21
403.4673383253
 31
0.0
  0
LINE
  5
CD
330
1F
100
AcDbEntity
  8
0
  6
Continuous
 62
     7
370
    25
100
AcDbLine
 10
-525.2408286071
 20
405.3949519231
 30
0.0
 11
-525.2408286071
 21
-213.6050480769
 31
0.0
  0
SPLINE
  5
CE
330
1F
100
AcDbEntity
  8
0
  6
Continuous
 62
     7
370
    25
100
AcDbSpline
210
0.0
220
0.0
230
1.0
 70
     8
 71
     3
 72
    10
 73
     6
 74
     0
 42
0.00000001
 43
0.00000001
 40
0.0
 40
0.0
 40
0.0
 40
0.0
 40
0.4130806101025215
 40
0.8261048340531956
 40
1.0
 40
1.0
 40
1.0
 40
1.0
 10
-542.0121026176369
 20
402.9751787932944
 30
0.0
 10
-542.52884253256
 20
403.0576547057448
 30
0.0
 10
-543.5622518265968
 20
403.2225952725543
 30
0.0
 10
-544.2429226183223
 20
403.4596671222607
 30
0.0
 10
-544.1655282658727
 20
403.5844150772107
 30
0.0
 10
-544.1425975125287
 20
403.6213759728652
 30
0.0
  0
SPLINE
  5
CF
330
1F
100
AcDbEntity
  8
0
  6
Continuous
 62
     7
370
    25
100
AcDbSpline
210
0.0
220
0.0
230
1.0
 70
     8
 71
     3
 72
    15
 73
    11
 74
     0
 42
0.00000001
 43
0.00000001
 40
0.0
 40
0.0
 40
0.0
 40
0.0
 40
0.0391960058856595
 40
0.1859074694963141
 40
0.3326341106195195
 40
0.4786643888599906
 40
0.6235240226490972
 40
0.7673883361736592
 40
0.9110664173274997
 40
1.0
 40
1.0
 40
1.0
 40
1.0
 10
-530.3190561255312
 20
403.467210563034
 30
0.0
 10
-530.2959718061027
 20
403.443564001596
 30
0.0
 10
-530.186482399898
 20
403.3314078698704
 30
0.0
 10
-530.7942235586706
 20
403.1235177852907
 30
0.0
 10
-532.1058410136184
 20
402.8866602407091
 30
0.0
 10
-534.0606303139931
 20
402.7195534199744
 30
0.0
 10
-536.3518836258686
 20
402.6507454393458
 30
0.0
 10
-538.7258443069146
 20
402.6921380976165
 30
0.0
 10
-540.671711292469
 20
402.8152754691961
 30
0.0
 10
-541.6413746904532
 20
402.9309524343352
 30
0.0
 10
-542.0121026176369
 20
402.9751787932944
 30
0.0
  0
LINE
  5
D0
330
1F
100
AcDbEntity
  8
0
  6
Continuous
 62
     7
370
    25
100
AcDbLine
 10
-885.2408286071
 20
405.3949519231
 30
0.0
 11
-885.2408286071
 21
-213.6050480769
 31
0.0
  0
SPLINE
  5
D1
330
1F
100
AcDbEntity
  8
0
  6
Continuous
 62
     7
370
    25
100
AcDbSpline
210
0.0
220
0.0
230
1.0
 70
     8
 71
     3
 72
    10
 73
     6
 74
     0
 42
0.00000001
 43
0.00000001
 40
0.0
 40
0.0
 40
0.0
 40
0.0
 40
0.4156121183520637
 40
0.8311478599217593
 40
0.9999999999999999
 40
0.9999999999999999
 40
0.9999999999999999
 40
0.9999999999999999
 10
-878.0472615641022
 20
402.8724020870974
 30
0.0
 10
-878.5588553106937
 20
402.9436479603601
 30
0.0
 10
-879.58194878861
 20
403.0861266140754
 30
0.0
 10
-880.2481483820966
 20
403.3065982166717
 30
0.0
 10
-880.1673922251175
 20
403.4313055726877
 30
0.0
 10
-880.1440586647228
 20
403.4673383252619
 30
0.0
  0
SPLINE
  5
D2
330
1F
100
AcDbEntity
  8
0
  6
Continuous
 62
     7
370
    25
100
AcDbSpline
210
0.0
220
0.0
230
1.0
 70
     8
 71
     3
 72
    15
 73
    11
 74
     0
 42
0.00000001
 43
0.00000001
 40
0.0
 40
0.0
 40
0.0
 40
0.0
 40
0.0412683350975819
 40
0.1873478665065801
 40
0.3338037924692696
 40
0.4798615564653173
 40
0.6248147700848278
 40
0.7685551695026979
 40
0.9117188102756277
 40
1.0
 40
1.0
 40
1.0
 40
1.0
 10
-866.3214799167635
 20
403.6216077590171
 30
0.0
 10
-866.2980407194017
 20
403.5971323921904
 30
0.0
 10
-866.1916326559801
 20
403.4860203798906
 30
0.0
 10
-866.8078856273868
 20
403.2635651508797
 30
0.0
 10
-868.1298460134041
 20
402.9979653973813
 30
0.0
 10
-870.0942355147171
 20
402.7879815627077
 30
0.0
 10
-872.3952670050996
 20
402.6693191941894
 30
0.0
 10
-874.7737815744167
 20
402.6597293901874
 30
0.0
 10
-876.7160372441195
 20
402.7413516509992
 30
0.0
 10
-877.6796903958982
 20
402.8362170796819
 30
0.0
 10
-878.0472615641022
 20
402.8724020870974
 30
0.0
  0
LINE
  5
D3
330
1F
100
AcDbEntity
  8
0
  6
Continuous
 62
     7
370
    25
100
AcDbLine
 10
-530.2408286071
 20
405.8949519231
 30
0.0
 11
-544.2408286071
 21
405.8949519231
 31
0.0
  0
LINE
  5
D4
330
1F
100
AcDbEntity
  8
0
  6
Continuous
 62
     7
370
    25
100
AcDbLine
 10
-866.2408286071
 20
405.8949519231
 30
0.0
 11
-880.2408286071
 21
405.8949519231
 31
0.0
  0
LINE
  5
D5
330
1F
100
AcDbEntity
  8
0
  6
Continuous
 62
     1
370
    25
100
AcDbLine
 10
-692.7408286071
 20
406.3949519231
 30
0.0
 11
-692.7408286071
 21
-214.6050480769
 31
0.0
  0
LINE
  5
D6
330
1F
100
AcDbEntity
  8
0
  6
Continuous
 62
     1
370
    25
100
AcDbLine
 10
-717.7408286071
 20
406.3949519231
 30
0.0
 11
-717.7408286071
 21
-214.6050480769
 31
0.0
  0
ARC
  5
D7
330
1F
100
AcDbEntity
  8
0
  6
Continuous
 62
     7
370
    25
100
AcDbCircle
 10
-13587.517908654
 20
-802.3862764392
 30
0.0
 40
14028.62500000019
100
AcDbArc
 50
0.0
 51
0.6841205827
  0
ARC
  5
D8
330
1F
100
AcDbEntity
  8
0
  6
Continuous
 62
     7
370
    25
100
AcDbCircle
 10
13848.7320913463
 20
-802.3862764392
 30
0.0
 40
14028.62500000019
100
AcDbArc
 50
179.3158794173
 51
180.0
  0
LINE
  5
D9
330
1F
100
AcDbEntity
  8
0
  6
Continuous
 62
     7
370
    25
100
AcDbLine
 10
-179.8929086538
 20
-802.3862764392
 30
0.0
 11
-179.8929086538
 21
-827.3862764392
 31
0.0
  0
LINE
  5
DA
330
1F
100
AcDbEntity
  8
0
  6
Continuous
 62
     7
370
    25
100
AcDbLine
 10
441.1070913462
 20
-827.3862764392
 30
0.0
 11
441.1070913462
 21
-802.3862764392
 31
0.0
  0
ARC
  5
DB
330
1F
100
AcDbEntity
  8
0
  6
Continuous
 62
     7
370
    25
100
AcDbCircle
 10
-13587.517908654
 20
-827.3862764392
 30
0.0
 40
14028.62500000019
100
AcDbArc
 50
359.3158794173
 51
0.0
  0
ARC
  5
DC
330
1F
100
AcDbEntity
  8
0
  6
Continuous
 62
     7
370
    25
100
AcDbCircle
 10
13848.7320913463
 20
-827.3862764392
 30
0.0
 40
14028.62500000019
100
AcDbArc
 50
180.0
 51
180.6841205827
  0
LINE
  5
DD
330
1F
100
AcDbEntity
  8
0
  6
Continuous
 62
     7
370
    25
100
AcDbLine
 10
-178.8929086538
 20
-634.8862764392
 30
0.0
 11
440.1070913462
 21
-634.8862764392
 31
0.0
  0
LINE
  5
DE
330
1F
100
AcDbEntity
  8
0
  6
Continuous
 62
     7
370
    25
100
AcDbLine
 10
-178.8929086538
 20
-994.8862764392
 30
0.0
 11
440.1070913462
 21
-994.8862764392
 31
0.0
  0
CIRCLE
  5
DF
330
1F
100
AcDbEntity
  8
0
  6
Continuous
 62
     7
370
    25
100
AcDbCircle
 10
165.6070913462
 20
-646.8862764392
 30
0.0
 40
7.0
  0
CIRCLE
  5
E0
330
1F
100
AcDbEntity
  8
0
  6
Continuous
 62
     7
370
    25
100
AcDbCircle
 10
165.6070913462
 20
-646.8862764392
 30
0.0
 40
5.0
  0
CIRCLE
  5
E1
330
1F
100
AcDbEntity
  8
0
  6
Continuous
 62
     7
370
    25
100
AcDbCircle
 10
95.6070913462
 20
-646.8862764392
 30
0.0
 40
5.0
  0
CIRCLE
  5
E2
330
1F
100
AcDbEntity
  8
0
  6
Continuous
 62
     7
370
    25
100
AcDbCircle
 10
95.6070913462
 20
-646.8862764392
 30
0.0
 40
7.0
  0
CIRCLE
  5
E3
330
1F
100
AcDbEntity
  8
0
  6
Continuous
 62
     7
370
    25
100
AcDbCircle
 10
95.6070913462
 20
-982.8862764392
 30
0.0
 40
5.0
  0
CIRCLE
  5
E4
330
1F
100
AcDbEntity
  8
0
  6
Continuous
 62
     7
370
    25
100
AcDbCircle
 10
95.6070913462
 20
-982.8862764392
 30
0.0
 40
7.0
  0
CIRCLE
  5
E5
330
1F
100
AcDbEntity
  8
0
  6
Continuous
 62
     7
370
    25
100
AcDbCircle
 10
165.6070913462
 20
-982.8862764392
 30
0.0
 40
7.0
  0
CIRCLE
  5
E6
330
1F
100
AcDbEntity
  8
0
  6
Continuous
 62
     7
370
    25
100
AcDbCircle
 10
165.6070913462
 20
-982.8862764392
 30
0.0
 40
5.0
  0
LINE
  5
E7
330
1F
100
AcDbEntity
  8
0
  6
Continuous
 62
     1
370
    25
100
AcDbLine
 10
-179.8929086538
 20
-802.3862764392
 30
0.0
 11
441.1070913462
 21
-802.3862764392
 31
0.0
  0
LINE
  5
E8
330
1F
100
AcDbEntity
  8
0
  6
Continuous
 62
     1
370
    25
100
AcDbLine
 10
-179.8929086538
 20
-827.3862764392
 30
0.0
 11
441.1070913462
 21
-827.3862764392
 31
0.0
  0
INSERT
  5
F4
330
1F
100
AcDbEntity
  8
FORMAT
 62
     7
100
AcDbBlockReference
  2
SW_CENTERMARKSYMBOL_1
 10
130.6070913462
 20
-781.8862764392
 30
0.0
  0
INSERT
  5
100
330
1F
100
AcDbEntity
  8
FORMAT
 62
     7
100
AcDbBlockReference
  2
SW_CENTERMARKSYMBOL_2
 10
130.6070913462
 20
-847.8862764392
 30
0.0
  0
SPLINE
  5
101
330
1F
100
AcDbEntity
  8
0
  6
Continuous
 62
     7
370
    25
100
AcDbSpline
210
0.0
220
0.0
230
1.0
 70
     8
 71
     3
 72
    10
 73
     6
 74
     0
 42
0.00000001
 43
0.00000001
 40
0.0
 40
0.0
 40
0.0
 40
0.0
 40
0.3335012331735399
 40
0.7287084488416609
 40
1.0
 40
1.0
 40
1.0
 40
1.0
 10
800.2866077161692
 20
-444.8871876718149
 30
0.0
 10
786.9812687851097
 20
-452.5855092840318
 30
0.0
 10
757.9087739055487
 20
-469.4065325448476
 30
0.0
 10
718.1667514640925
 20
-492.7540307649701
 30
0.0
 10
691.7880555316322
 20
-508.4956688916704
 30
0.0
 10
681.0508753698049
 20
-514.9031427501745
 30
0.0
  0
SPLINE
  5
102
330
1F
100
AcDbEntity
  8
0
  6
Continuous
 62
     7
370
    25
100
AcDbSpline
210
0.0
220
0.0
230
1.0
 70
     8
 71
     3
 72
    11
 73
     7
 74
     0
 42
0.00000001
 43
0.00000001
 40
0.0
 40
0.0
 40
0.0
 40
0.0
 40
0.1477853601478659
 40
0.543032996904045
 40
0.9382730604852755
 40
1.0
 40
1.0
 40
1.0
 40
1.0
 10
990.4791249340587
 20
-1050.906836857203
 30
0.0
 10
996.4320700713154
 20
-1047.59681283976
 30
0.0
 10
1018.305993408887
 20
-1035.434226097623
 30
0.0
 10
1055.931369731181
 20
-1014.111577402346
 30
0.0
 10
1090.063505146475
 20
-994.6690405311602
 30
0.0
 10
1108.280132552618
 20
-984.0955834470016
 30
0.0
 10
1110.74082807427
 20
-982.6673246417188
 30
0.0
  0
LINE
  5
103
330
1F
100
AcDbEntity
  8
0
  6
Continuous
 62
     7
370
    25
100
AcDbLine
 10
817.9539778954
 20
-434.6639982351
 30
0.0
 11
800.2763083657
 21
-444.8690996329
 31
0.0
  0
LINE
  5
104
330
1F
100
AcDbEntity
  8
0
  6
Continuous
 62
     7
370
    25
100
AcDbLine
 10
1110.7510748492
 20
-982.6854431713
 30
0.0
 11
1128.4287443789
 21
-972.4803417735
 31
0.0
  0
SPLINE
  5
105
330
1F
100
AcDbEntity
  8
0
  6
Continuous
 62
     7
370
    25
100
AcDbSpline
210
0.0
220
0.0
230
1.0
 70
     8
 71
     3
 72
    11
 73
     7
 74
     0
 42
0.00000001
 43
0.00000001
 40
0.0
 40
0.0
 40
0.0
 40
0.0
 40
0.1477814174860366
 40
0.5430310866547293
 40
0.9382731826118698
 40
1.0
 40
1.0
 40
1.0
 40
1.0
 10
938.225359767732
 20
-366.4429209467959
 30
0.0
 10
932.2726041080609
 20
-369.7528397353233
 30
0.0
 10
910.3988703907164
 20
-381.9153215077209
 30
0.0
 10
872.7736831723165
 20
-403.2378642926268
 30
0.0
 10
838.6415651525758
 20
-422.6803907628047
 30
0.0
 10
820.4249552485168
 20
-433.2538376433317
 30
0.0
 10
817.9642772458337
 20
-434.6820862740306
 30
0.0
  0
SPLINE
  5
106
330
1F
100
AcDbEntity
  8
0
  6
Continuous
 62
     7
370
    25
100
AcDbSpline
210
0.0
220
0.0
230
1.0
 70
     8
 71
     3
 72
    10
 73
     6
 74
     0
 42
0.00000001
 43
0.00000001
 40
0.0
 40
0.0
 40
0.0
 40
0.0
 40
0.3335017093104109
 40
0.7287100100696177
 40
1.0
 40
1.0
 40
1.0
 40
1.0
 10
1128.418497603934
 20
-972.4622232439349
 30
0.0
 10
1141.723818984862
 20
-964.7639117533729
 30
0.0
 10
1170.796296296969
 20
-947.9428985855361
 30
0.0
 10
1210.538209753022
 20
-924.5954646844405
 30
0.0
 10
1236.916814487652
 20
-908.8538811443019
 30
0.0
 10
1247.653903408663
 20
-902.4464618009245
 30
0.0
  0
LINE
  5
107
330
1F
100
AcDbEntity
  8
0
  6
Continuous
 62
     7
370
    25
100
AcDbLine
 10
877.3073244745
 20
-540.7757953176
 30
0.0
 11
877.3073244745
 21
-538.4124923686
 31
0.0
  0
LINE
  5
108
330
1F
100
AcDbEntity
  8
0
  6
Continuous
 62
     7
370
    25
100
AcDbLine
 10
863.3073244745
 20
-538.4124923686
 30
0.0
 11
863.3073244745
 21
-539.9517069747
 31
0.0
  0
LINE
  5
109
330
1F
100
AcDbEntity
  8
0
  6
Continuous
 62
     7
370
    25
100
AcDbLine
 10
827.8098497914
 20
-511.2899901741
 30
0.0
 11
827.8098497914
 21
-509.8382084548
 31
0.0
  0
LINE
  5
10A
330
1F
100
AcDbEntity
  8
0
  6
Continuous
 62
     7
370
    25
100
AcDbLine
 10
813.8098497914
 20
-509.8382084548
 30
0.0
 11
813.8098497914
 21
-512.2893676707
 31
0.0
  0
LINE
  5
10B
330
1F
100
AcDbEntity
  8
0
  6
Continuous
 62
     7
370
    25
100
AcDbLine
 10
1114.8952029532
 20
-403.7090461562
 30
0.0
 11
1114.8952029532
 21
-401.2559295824
 31
0.0
  0
LINE
  5
10C
330
1F
100
AcDbEntity
  8
0
  6
Continuous
 62
     7
370
    25
100
AcDbLine
 10
1100.8952029532
 20
-401.2559295824
 30
0.0
 11
1100.8952029532
 21
-402.7060100186
 31
0.0
  0
LINE
  5
10D
330
1F
100
AcDbEntity
  8
0
  6
Continuous
 62
     7
370
    25
100
AcDbLine
 10
1065.3977282701
 20
-374.2222961658
 30
0.0
 11
1065.3977282701
 21
-372.6816456686
 31
0.0
  0
LINE
  5
10E
330
1F
100
AcDbEntity
  8
0
  6
Continuous
 62
     7
370
    25
100
AcDbLine
 10
1051.3977282701
 20
-372.6816456686
 30
0.0
 11
1051.3977282701
 21
-375.0421358638
 31
0.0
  0
LWPOLYLINE
  5
10F
330
1F
100
AcDbEntity
  8
0
  6
Continuous
 62
     7
370
    25
100
AcDbPolyline
 90
      187
 70
   128
 43
0.0
 10
618.2237569815
 20
-655.8122954627
 10
618.3486126341
 20
-647.3489928567
 10
618.7230371293
 20
-639.0395023006
 10
619.3466032421
 20
-630.8933050738
 10
620.2185994721
 20
-622.9196961352
 10
621.3380308559
 20
-615.1277735172
 10
622.7036201018
 20
-607.5264279448
 10
624.3138090479
 20
-600.1243326912
 10
626.1667604393
 20
-592.9299336814
 10
628.2603600249
 20
-585.9514398553
 10
630.5922189696
 20
-579.1968138007
 10
633.15967658
 20
-572.6737626687
 10
635.9598033403
 20
-566.3897293788
 10
638.9894042553
 20
-560.351884127
 10
642.2450224952
 20
-554.5671162044
 10
645.7229433406
 20
-549.042026136
 10
649.4191984207
 20
-543.7829181498
 10
653.3295702415
 20
-538.7957929835
 10
657.4495969977
 20
-534.0863410373
 10
661.774577664
 20
-529.6599358814
 10
666.2995773592
 20
-525.5216281243
 10
671.0194329763
 20
-521.6761396503
 10
675.9287590747
 20
-518.1278582314
 10
681.021954024
 20
-514.8808325211
 10
686.2932063966
 20
-511.9387674347
 10
691.7365015977
 20
-509.3050199217
 10
697.3456287289
 20
-506.982595136
 10
703.1141876743
 20
-504.9741430062
 10
709.0355964036
 20
-503.2819552128
 10
715.1030984819
 20
-501.9079625726
 10
721.3097707793
 20
-500.8537328363
 10
727.6485313701
 20
-500.120468899
 10
734.1121476135
 20
-499.7090074282
 10
740.6932444062
 20
-499.6198179089
 10
747.3843125973
 20
-499.853002108
 10
754.1777175565
 20
-500.4082939581
 10
761.0657078857
 20
-501.2850598611
 10
768.0404242628
 20
-502.4822994111
 10
775.0939084101
 20
-503.9986465363
 10
782.218112174
 20
-505.8323710569
 10
789.404906709
 20
-507.98138066
 10
796.646091752
 20
-510.4432232867
 10
803.9334049795
 20
-513.2150899299
 10
811.258531435
 20
-516.2938178395
 10
818.6131130163
 20
-519.6758941311
 10
825.9887580124
 20
-523.3574597942
 10
833.3770506786
 20
-527.3343140958
 10
840.7695608389
 20
-531.6019193728
 10
848.157853505
 20
-536.1554062102
 10
855.5334985011
 20
-540.9895789969
 10
862.8880800824
 20
-546.0989218542
 10
870.2132065379
 20
-551.4776049291
 10
877.5005197655
 20
-557.1194910466
 10
884.7417048085
 20
-563.0181427124
 10
891.9284993434
 20
-569.1668294579
 10
899.0527031074
 20
-575.5585355199
 10
906.1061872546
 20
-582.185967846
 10
913.0809036318
 20
-589.0415644156
 10
919.9688939609
 20
-596.1175028686
 10
926.7622989202
 20
-603.4057094309
 10
933.4533671112
 20
-610.8978681266
 10
940.0344639039
 20
-618.5854302668
 10
946.4980801473
 20
-626.4596242035
 10
952.8368407382
 20
-634.5114653387
 10
959.0435130356
 20
-642.7317663756
 10
965.1110151139
 20
-651.1111478014
 10
971.0324238431
 20
-659.6400485901
 10
976.8009827885
 20
-668.3087371111
 10
982.4101099197
 20
-677.1073222336
 10
987.8534051209
 20
-686.0257646123
 10
993.1246574934
 20
-695.0538881426
 10
998.2178524428
 20
-704.181391572
 10
1003.1271785411
 20
-713.3978602532
 10
1007.8470341583
 20
-722.6927780285
 10
1012.3720338534
 20
-732.055539228
 10
1016.6970145198
 20
-741.4754607713
 10
1020.817041276
 20
-750.9417943571
 10
1024.7274130967
 20
-760.443738727
 10
1028.4236681769
 20
-769.9704519902
 10
1031.9015890223
 20
-779.5110639939
 10
1035.1572072622
 20
-789.0546887268
 10
1038.1868081771
 20
-798.59043674
 10
1040.9869349375
 20
-808.107427572
 10
1043.5543925479
 20
-817.5948021636
 10
1045.8862514925
 20
-827.0417352483
 10
1047.9798510781
 20
-836.437447704
 10
1049.8328024695
 20
-845.7712188525
 10
1051.4429914156
 20
-855.0323986915
 10
1052.8085806616
 20
-864.2104200468
 10
1053.9280120453
 20
-873.2948106296
 10
1054.8000082754
 20
-882.2752049853
 10
1055.4235743881
 20
-891.1413563212
 10
1055.7979988834
 20
-899.8831481978
 10
1055.922854536
 20
-908.4906060718
 10
1055.7979988834
 20
-916.9539086778
 10
1055.4235743881
 20
-925.2633992339
 10
1054.8000082754
 20
-933.4095964607
 10
1053.9280120453
 20
-941.3832053993
 10
1052.8085806616
 20
-949.1751280173
 10
1051.4429914156
 20
-956.7764735897
 10
1049.8328024695
 20
-964.1785688433
 10
1047.9798510781
 20
-971.372967853
 10
1045.8862514925
 20
-978.3514616792
 10
1043.5543925479
 20
-985.1060877338
 10
1040.9869349375
 20
-991.6291388658
 10
1038.1868081771
 20
-997.9131721557
 10
1035.1572072622
 20
-1003.9510174075
 10
1031.9015890223
 20
-1009.7357853301
 10
1028.4236681769
 20
-1015.2608753985
 10
1024.7274130967
 20
-1020.5199833847
 10
1020.817041276
 20
-1025.507108551
 10
1016.6970145198
 20
-1030.2165604971
 10
1012.3720338534
 20
-1034.6429656531
 10
1007.8470341583
 20
-1038.7812734102
 10
1003.1271785411
 20
-1042.6267618842
 10
998.2178524428
 20
-1046.1750433031
 10
993.1246574934
 20
-1049.4220690134
 10
987.8534051209
 20
-1052.3641340998
 10
982.4101099197
 20
-1054.9978816127
 10
976.8009827885
 20
-1057.3203063985
 10
971.0324238431
 20
-1059.3287585282
 10
965.1110151139
 20
-1061.0209463217
 10
959.0435130356
 20
-1062.3949389618
 10
952.8368407382
 20
-1063.4491686982
 10
946.4980801473
 20
-1064.1824326355
 10
940.0344639039
 20
-1064.5938941063
 10
933.4533671112
 20
-1064.6830836256
 10
926.7622989202
 20
-1064.4498994265
 10
919.9688939609
 20
-1063.8946075764
 10
913.0809036318
 20
-1063.0178416734
 10
906.1061872546
 20
-1061.8206021234
 10
899.0527031074
 20
-1060.3042549982
 10
891.9284993434
 20
-1058.4705304776
 10
884.7417048085
 20
-1056.3215208745
 10
877.5005197655
 20
-1053.8596782478
 10
870.2132065379
 20
-1051.0878116045
 10
862.8880800824
 20
-1048.009083695
 10
855.5334985011
 20
-1044.6270074034
 10
848.157853505
 20
-1040.9454417402
 10
840.7695608389
 20
-1036.9685874387
 10
833.3770506786
 20
-1032.7009821617
 10
825.9887580124
 20
-1028.1474953243
 10
818.6131130163
 20
-1023.3133225375
 10
811.258531435
 20
-1018.2039796803
 10
803.9334049795
 20
-1012.8252966054
 10
796.646091752
 20
-1007.1834104879
 10
789.404906709
 20
-1001.2847588221
 10
782.218112174
 20
-995.1360720766
 10
775.0939084101
 20
-988.7443660145
 10
768.0404242628
 20
-982.1169336885
 10
761.0657078857
 20
-975.2613371189
 10
754.1777175565
 20
-968.1853986659
 10
747.3843125973
 20
-960.8971921036
 10
740.6932444062
 20
-953.4050334078
 10
734.1121476135
 20
-945.7174712677
 10
727.6485313701
 20
-937.8432773309
 10
721.3097707793
 20
-929.7914361958
 10
715.1030984819
 20
-921.5711351589
 10
709.0355964036
 20
-913.1917537331
 10
703.1141876743
 20
-904.6628529444
 10
697.3456287289
 20
-895.9941644233
 10
691.7365015977
 20
-887.1955793009
 10
686.2932063966
 20
-878.2771369222
 10
681.021954024
 20
-869.2490133918
 10
675.9287590747
 20
-860.1215099625
 10
671.0194329763
 20
-850.9050412812
 10
666.2995773592
 20
-841.610123506
 10
661.774577664
 20
-832.2473623065
 10
657.4495969977
 20
-822.8274407632
 10
653.3295702415
 20
-813.3611071774
 10
649.4191984207
 20
-803.8591628074
 10
645.7229433406
 20
-794.3324495443
 10
642.2450224952
 20
-784.7918375406
 10
638.9894042553
 20
-775.2482128076
 10
635.9598033403
 20
-765.7124647945
 10
633.15967658
 20
-756.1954739625
 10
630.5922189696
 20
-746.7080993709
 10
628.2603600249
 20
-737.2611662862
 10
626.1667604393
 20
-727.8654538304
 10
624.3138090479
 20
-718.531682682
 10
622.7036201018
 20
-709.270502843
 10
621.3380308559
 20
-700.0924814877
 10
620.2185994721
 20
-691.0080909049
 10
619.3466032421
 20
-682.0276965491
 10
618.7230371293
 20
-673.1615452132
 10
618.3486126341
 20
-664.4197533367
 10
618.2237569815
 20
-655.8122954627
  0
SPLINE
  5
110
330
1F
100
AcDbEntity
  8
0
  6
Continuous
 62
     7
370
    25
100
AcDbSpline
210
0.0
220
0.0
230
1.0
 70
     8
 71
     3
 72
    13
 73
     9
 74
     0
 42
0.00000001
 43
0.00000001
 40
0.0
 40
0.0
 40
0.0
 40
0.0
 40
0.1947933097337047
 40
0.3895581625260258
 40
0.5850229489226767
 40
0.7812370271492614
 40
0.9775341908498328
 40
1.0
 40
1.0
 40
1.0
 40
1.0
 10
821.9321044696746
 20
-515.2962171412815
 30
0.0
 10
821.1406932110735
 20
-515.3716804485535
 30
0.0
 10
819.5579863094631
 20
-515.5225960388232
 30
0.0
 10
817.2998581282116
 20
-515.2231321665982
 30
0.0
 10
815.423650150809
 20
-514.5745539213519
 30
0.0
 10
814.2316953226285
 20
-513.6083587978303
 30
0.0
 10
813.7088928536402
 20
-512.7934348222778
 30
0.0
 10
813.8373686545572
 20
-512.3391064031842
 30
0.0
 10
813.8505624450154
 20
-512.2924492590531
 30
0.0
  0
SPLINE
  5
111
330
1F
100
AcDbEntity
  8
0
  6
Continuous
 62
     7
370
    25
100
AcDbSpline
210
0.0
220
0.0
230
1.0
 70
     8
 71
     3
 72
    12
 73
     8
 74
     0
 42
0.00000001
 43
0.00000001
 40
0.0
 40
0.0
 40
0.0
 40
0.0
 40
0.137045132155128
 40
0.3760026194872878
 40
0.6142006239089097
 40
0.8522177779682965
 40
1.0
 40
1.0
 40
1.0
 40
1.0
 10
827.7118436938332
 20
-511.2886458162658
 30
0.0
 10
827.7249625453591
 20
-511.525522709115
 30
0.0
 10
827.7609559619863
 20
-512.1754278229031
 30
0.0
 10
826.942854418825
 20
-513.244034662126
 30
0.0
 10
825.4351254818839
 20
-514.2999855448178
 30
0.0
 10
823.6394203202353
 20
-514.9872086657398
 30
0.0
 10
822.4049673476177
 20
-515.2106333068635
 30
0.0
 10
821.9321044696746
 20
-515.2962171412815
 30
0.0
  0
SPLINE
  5
112
330
1F
100
AcDbEntity
  8
0
  6
Continuous
 62
     7
370
    25
100
AcDbSpline
210
0.0
220
0.0
230
1.0
 70
     8
 71
     3
 72
    12
 73
     8
 74
     0
 42
0.00000001
 43
0.00000001
 40
0.0
 40
0.0
 40
0.0
 40
0.0
 40
0.2114995821240382
 40
0.4229602971004609
 40
0.635257667608281
 40
0.8477236354563953
 40
1.0
 40
1.0
 40
1.0
 40
1.0
 10
870.5071490849175
 20
-544.9198948128195
 30
0.0
 10
869.7153824982217
 20
-544.8295555776696
 30
0.0
 10
868.131994827287
 20
-544.648893708955
 30
0.0
 10
865.9935956623127
 20
-543.7598725741227
 30
0.0
 10
864.3705587298417
 20
-542.5332102706637
 30
0.0
 10
863.4154897219084
 20
-541.191195663501
 30
0.0
 10
863.3964416517856
 20
-540.3143189349997
 30
0.0
 10
863.3884892683843
 20
-539.948231457592
 30
0.0
  0
SPLINE
  5
113
330
1F
100
AcDbEntity
  8
0
  6
Continuous
 62
     7
370
    25
100
AcDbSpline
210
0.0
220
0.0
230
1.0
 70
     8
 71
     3
 72
    12
 73
     8
 74
     0
 42
0.00000001
 43
0.00000001
 40
0.0
 40
0.0
 40
0.0
 40
0.0
 40
0.2139552818155884
 40
0.4330117837253064
 40
0.6502354539933943
 40
0.8665875138428377
 40
1.0
 40
1.0
 40
1.0
 40
1.0
 10
877.2954087601627
 20
-540.7746893336802
 30
0.0
 10
877.2268373216554
 20
-541.2769067384928
 30
0.0
 10
877.0880595329105
 20
-542.2933156461415
 30
0.0
 10
875.9041338658755
 20
-543.5929115991343
 30
0.0
 10
874.147449192968
 20
-544.5209664411781
 30
0.0
 10
872.234275360509
 20
-544.9373545186853
 30
0.0
 10
870.9840347706923
 20
-544.9247157016699
 30
0.0
 10
870.5071490849176
 20
-544.9198948128196
 30
0.0
  0
LWPOLYLINE
  5
114
330
1F
100
AcDbEntity
  8
0
  6
Continuous
 62
     7
370
    25
100
AcDbPolyline
 90
      168
 70
   128
 43
0.0
 10
660.2966104621
 20
-680.1004367894
 10
660.4217142842
 20
-672.4941144171
 10
660.7968486802
 20
-665.0429997421
 10
661.4214826891
 20
-657.757638984
 10
662.2947322115
 20
-650.6483437562
 10
663.4153612603
 20
-643.7251764711
 10
664.7817837103
 20
-636.9979360979
 10
666.3920655435
 20
-630.476144293
 10
668.2439275858
 20
-624.1690319235
 10
670.3347487338
 20
-618.0855260016
 10
672.6615696638
 20
-612.2342370496
 10
675.221097021
 20
-606.6234469128
 10
678.0097080807
 20
-601.2610970372
 10
681.0234558758
 20
-596.1547772294
 10
684.2580747832
 20
-591.311714914
 10
687.7089865616
 20
-586.7387649042
 10
691.3713068313
 20
-582.4423996994
 10
695.2398519875
 20
-578.4287003241
 10
699.3091465371
 20
-574.7033477208
 10
703.5734308486
 20
-571.2716147097
 10
708.0266693046
 20
-568.1383585251
 10
712.662558844
 20
-565.3080139407
 10
717.4745378834
 20
-562.7845869928
 10
722.4557956048
 20
-560.57164931
 10
727.5992815947
 20
-558.6723330582
 10
732.8977158241
 20
-557.0893265072
 10
738.3435989516
 20
-555.8248702256
 10
743.9292229387
 20
-554.88075391
 10
749.6466819593
 20
-554.2583138514
 10
755.4878835895
 20
-553.9584310442
 10
761.4445602615
 20
-553.9815299388
 10
767.5082809657
 20
-554.3275778415
 10
773.6704631834
 20
-554.9960849601
 10
779.9223850348
 20
-555.9861050975
 10
786.2551976236
 20
-557.2962369909
 10
792.6599375618
 20
-558.9246262952
 10
799.1275396562
 20
-560.8689682074
 10
805.6488497392
 20
-563.1265107288
 10
812.2146376257
 20
-565.6940585607
 10
818.8156101772
 20
-568.567977626
 10
825.4424244551
 20
-571.7442002137
 10
832.0857009449
 20
-575.2182307359
 10
838.7360368315
 20
-578.985152091
 10
845.3840193083
 20
-583.0396326229
 10
852.0202388993
 20
-587.3759336679
 10
858.635302778
 20
-591.9879176767
 10
865.219848061
 20
-596.8690569017
 10
871.7645550608
 20
-602.0124426362
 10
878.2601604766
 20
-607.4107949928
 10
884.6974705052
 20
-613.0564732074
 10
891.0673738542
 20
-618.9414864538
 10
897.3608546376
 20
-625.0575051539
 10
903.5690051371
 20
-631.3958727671
 10
909.6830384101
 20
-637.9476180428
 10
915.694300726
 20
-644.7034677182
 10
921.5942838152
 20
-651.6538596437
 10
927.3746369115
 20
-658.7889563166
 10
933.0271785715
 20
-666.0986588055
 10
938.5439082544
 20
-673.5726210438
 10
943.9170176464
 20
-681.200264474
 10
949.1389017119
 20
-688.9707930195
 10
954.2021694579
 20
-696.8732083662
 10
959.0996543953
 20
-704.8963255288
 10
963.8244246817
 20
-713.0287886823
 10
968.3697929331
 20
-721.2590872343
 10
972.729325689
 20
-729.5755721177
 10
976.8968525183
 20
-737.966472278
 10
980.8664747528
 20
-746.4199113345
 10
984.6325738362
 20
-754.9239243893
 10
988.1898192764
 20
-763.4664749631
 10
991.5331761901
 20
-772.0354720306
 10
994.6579124296
 20
-780.6187871349
 10
997.5596052801
 20
-789.2042715531
 10
1000.2341477199
 20
-797.7797734922
 10
1002.6777542333
 20
-806.3331552881
 10
1004.8869661684
 20
-814.8523105854
 10
1006.8586566328
 20
-823.3251814723
 10
1008.5900349192
 20
-831.7397755476
 10
1010.0786504552
 20
-840.0841828944
 10
1011.322396272
 20
-848.3465929372
 10
1012.3195119864
 20
-856.5153111584
 10
1013.0685862927
 20
-864.5787756509
 10
1013.5685589599
 20
-872.5255734824
 10
1013.8187223326
 20
-880.3444568493
 10
1013.8187223326
 20
-888.0243589963
 10
1013.5685589599
 20
-895.554409881
 10
1013.0685862927
 20
-902.9239515582
 10
1012.3195119864
 20
-910.1225532658
 10
1011.322396272
 20
-917.1400261881
 10
1010.0786504552
 20
-923.9664378769
 10
1008.5900349192
 20
-930.5921263098
 10
1006.8586566328
 20
-937.0077135657
 10
1004.8869661684
 20
-943.2041190983
 10
1002.6777542333
 20
-949.1725725885
 10
1000.2341477199
 20
-954.9046263577
 10
997.5596052801
 20
-960.3921673249
 10
994.6579124296
 20
-965.6274284894
 10
991.5331761901
 20
-970.6029999246
 10
988.1898192764
 20
-975.3118392653
 10
984.6325738362
 20
-979.7472816761
 10
980.8664747528
 20
-983.9030492843
 10
976.8968525183
 20
-987.7732600655
 10
972.729325689
 20
-991.3524361691
 10
968.3697929331
 20
-994.6355116716
 10
963.8244246817
 20
-997.6178397468
 10
959.0996543953
 20
-1000.2951992428
 10
954.2021694579
 20
-1002.6638006565
 10
949.1389017119
 20
-1004.7202914976
 10
943.9170176464
 20
-1006.4617610332
 10
938.5439082544
 20
-1007.885744408
 10
933.0271785714
 20
-1008.9902261326
 10
927.3746369115
 20
-1009.7736429368
 10
921.5942838152
 20
-1010.2348859817
 10
915.694300726
 20
-1010.3733024293
 10
909.6830384101
 20
-1010.1886963666
 10
903.5690051371
 20
-1009.6813290828
 10
897.3608546376
 20
-1008.8519186996
 10
891.0673738542
 20
-1007.7016391547
 10
884.6974705052
 20
-1006.2321185401
 10
878.2601604766
 20
-1004.4454367978
 10
871.7645550608
 20
-1002.3441227763
 10
865.219848061
 20
-999.9311506503
 10
858.635302778
 20
-997.2099357122
 10
852.0202388993
 20
-994.1843295375
 10
845.3840193083
 20
-990.8586145332
 10
838.7360368315
 20
-987.2374978771
 10
832.0857009449
 20
-983.326104855
 10
825.4424244551
 20
-979.1299716062
 10
818.8156101772
 20
-974.6550372881
 10
812.2146376257
 20
-969.9076356698
 10
805.6488497392
 20
-964.8944861675
 10
799.1275396562
 20
-959.6226843337
 10
792.6599375618
 20
-954.0996918144
 10
786.2551976236
 20
-948.3333257879
 10
779.9223850348
 20
-942.3317479004
 10
773.6704631834
 20
-936.1034527143
 10
767.5082809657
 20
-929.6572556851
 10
761.4445602615
 20
-923.0022806837
 10
755.4878835895
 20
-916.1479470831
 10
749.6466819593
 20
-909.103956426
 10
743.9292229387
 20
-901.8802786936
 10
738.3435989516
 20
-894.4871381938
 10
732.8977158241
 20
-886.9349990902
 10
727.5992815947
 20
-879.2345505914
 10
722.4557956048
 20
-871.396691821
 10
717.4745378834
 20
-863.4325163917
 10
712.662558844
 20
-855.3532967032
 10
708.0266693046
 20
-847.1704679875
 10
703.5734308486
 20
-838.8956121236
 10
699.309146537
 20
-830.5404412447
 10
695.2398519875
 20
-822.1167811609
 10
691.3713068313
 20
-813.6365546209
 10
687.7089865616
 20
-805.1117644373
 10
684.2580747832
 20
-796.5544764971
 10
681.0234558758
 20
-787.9768026847
 10
678.0097080807
 20
-779.390883738
 10
675.221097021
 20
-770.8088720653
 10
672.6615696638
 20
-762.2429145443
 10
670.3347487338
 20
-753.7051353301
 10
668.2439275858
 20
-745.2076186944
 10
666.3920655435
 20
-736.7623919218
 10
664.7817837103
 20
-728.3814082864
 10
663.4153612603
 20
-720.0765301334
 10
662.2947322115
 20
-711.859512089
 10
661.4214826891
 20
-703.7419844235
 10
660.7968486802
 20
-695.7354365895
 10
660.4217142842
 20
-687.8512009602
 10
660.2966104621
 20
-680.1004367894
  0
LWPOLYLINE
  5
115
330
1F
100
AcDbEntity
  8
0
  6
Continuous
 62
     7
370
    25
100
AcDbPolyline
 90
       95
 70
   128
 43
0.0
 10
938.2063538971
 20
-366.4111833378
 10
940.8516476237
 20
-364.9853073066
 10
946.2949428249
 20
-362.3515597937
 10
951.9040699561
 20
-360.0291350079
 10
957.6726289015
 20
-358.0206828782
 10
963.5940376307
 20
-356.3284950847
 10
969.661539709
 20
-354.9545024445
 10
975.8682120064
 20
-353.9002727082
 10
982.2069725973
 20
-353.1670087709
 10
988.6705888407
 20
-352.7555473001
 10
995.2516856334
 20
-352.6663577808
 10
1001.9427538244
 20
-352.8995419799
 10
1008.7361587837
 20
-353.45483383
 10
1015.6241491128
 20
-354.331599733
 10
1022.59886549
 20
-355.528839283
 10
1029.6523496372
 20
-357.0451864082
 10
1036.7765534012
 20
-358.8789109288
 10
1043.9633479361
 20
-361.0279205319
 10
1051.2045329791
 20
-363.4897631586
 10
1058.4918462067
 20
-366.2616298018
 10
1065.8169726622
 20
-369.3403577114
 10
1073.1715542435
 20
-372.722434003
 10
1080.5471992396
 20
-376.4039996662
 10
1087.9354919058
 20
-380.3808539677
 10
1095.328002066
 20
-384.6484592447
 10
1102.7162947322
 20
-389.2019460821
 10
1110.0919397283
 20
-394.0361188688
 10
1117.4465213096
 20
-399.1454617261
 10
1124.7716477651
 20
-404.524144801
 10
1132.0589609926
 20
-410.1660309185
 10
1139.3001460356
 20
-416.0646825843
 10
1146.4869405706
 20
-422.2133693298
 10
1153.6111443345
 20
-428.6050753918
 10
1160.6646284818
 20
-435.2325077179
 10
1167.6393448589
 20
-442.0881042875
 10
1174.5273351881
 20
-449.1640427405
 10
1181.3207401474
 20
-456.4522493028
 10
1188.0118083384
 20
-463.9444079985
 10
1194.5929051311
 20
-471.6319701387
 10
1201.0565213745
 20
-479.5061640755
 10
1207.3952819653
 20
-487.5580052106
 10
1213.6019542627
 20
-495.7783062475
 10
1219.669456341
 20
-504.1576876733
 10
1225.5908650703
 20
-512.686588462
 10
1231.3594240157
 20
-521.3552769831
 10
1236.9685511469
 20
-530.1538621055
 10
1242.411846348
 20
-539.0723044842
 10
1247.6830987206
 20
-548.1004280146
 10
1252.7762936699
 20
-557.2279314439
 10
1257.6856197683
 20
-566.4444001251
 10
1262.4054753854
 20
-575.7393179004
 10
1266.9304750806
 20
-585.1020790999
 10
1271.2554557469
 20
-594.5220006432
 10
1275.3754825031
 20
-603.988334229
 10
1279.2858543239
 20
-613.490278599
 10
1282.982109404
 20
-623.0169918621
 10
1286.4600302494
 20
-632.5576038658
 10
1289.7156484893
 20
-642.1012285988
 10
1292.7452494043
 20
-651.6369766119
 10
1295.5453761647
 20
-661.1539674439
 10
1298.112833775
 20
-670.6413420355
 10
1300.4446927197
 20
-680.0882751202
 10
1302.5382923053
 20
-689.483987576
 10
1304.3912436967
 20
-698.8177587244
 10
1306.0014326428
 20
-708.0789385634
 10
1307.3670218888
 20
-717.2569599187
 10
1308.4864532725
 20
-726.3413505015
 10
1309.3584495025
 20
-735.3217448572
 10
1309.9820156153
 20
-744.1878961932
 10
1310.3564401105
 20
-752.9296880697
 10
1310.4812957631
 20
-761.5371459437
 10
1310.3564401105
 20
-770.0004485497
 10
1309.9820156153
 20
-778.3099391058
 10
1309.3584495025
 20
-786.4561363326
 10
1308.4864532725
 20
-794.4297452712
 10
1307.3670218888
 20
-802.2216678892
 10
1306.0014326428
 20
-809.8230134616
 10
1304.3912436967
 20
-817.2251087152
 10
1302.5382923053
 20
-824.419507725
 10
1300.4446927197
 20
-831.3980015511
 10
1298.112833775
 20
-838.1526276057
 10
1295.5453761647
 20
-844.6756787377
 10
1292.7452494043
 20
-850.9597120276
 10
1289.7156484893
 20
-856.9975572794
 10
1286.4600302494
 20
-862.782325202
 10
1282.982109404
 20
-868.3074152704
 10
1279.2858543239
 20
-873.5665232566
 10
1275.3754825031
 20
-878.5536484229
 10
1271.2554557469
 20
-883.2631003691
 10
1266.9304750806
 20
-887.689505525
 10
1262.4054753854
 20
-891.8278132821
 10
1257.6856197683
 20
-895.6733017561
 10
1252.7762936699
 20
-899.221583175
 10
1247.6830987206
 20
-902.4686088853
 10
1247.6703240374
 20
-902.4762359902
  0
SPLINE
  5
116
330
1F
100
AcDbEntity
  8
0
  6
Continuous
 62
     7
370
    25
100
AcDbSpline
210
0.0
220
0.0
230
1.0
 70
     8
 71
     3
 72
    12
 73
     8
 74
     0
 42
0.00000001
 43
0.00000001
 40
0.0
 40
0.0
 40
0.0
 40
0.0
 40
0.2112432737681695
 40
0.4224577124978013
 40
0.6342251648283672
 40
0.84563575482474
 40
1.0
 40
1.0
 40
1.0
 40
1.0
 10
1108.143207842143
 20
-407.6785204851553
 30
0.0
 10
1107.349653455847
 20
-407.5818852767562
 30
0.0
 10
1105.762653004674
 20
-407.3886280508155
 30
0.0
 10
1103.613112287957
 20
-406.4925403614544
 30
0.0
 10
1101.977702003328
 20
-405.2700496254204
 30
0.0
 10
1101.009330508494
 20
-403.9354903047977
 30
0.0
 10
1100.984053335568
 20
-403.0683766874278
 30
0.0
 10
1100.973385866558
 20
-402.7024375189671
 30
0.0
  0
SPLINE
  5
117
330
1F
100
AcDbEntity
  8
0
  6
Continuous
 62
     7
370
    25
100
AcDbSpline
210
0.0
220
0.0
230
1.0
 70
     8
 71
     3
 72
    12
 73
     8
 74
     0
 42
0.00000001
 43
0.00000001
 40
0.0
 40
0.0
 40
0.0
 40
0.0
 40
0.2111974653451946
 40
0.4303761361675243
 40
0.648048845895523
 40
0.8654397782752631
 40
1.0
 40
1.0
 40
1.0
 40
1.0
 10
1114.878359590667
 20
-403.7075320304337
 30
0.0
 10
1114.814141863645
 20
-404.1915287722063
 30
0.0
 10
1114.683279605502
 20
-405.177812614682
 30
0.0
 10
1113.518086827885
 20
-406.4311447079771
 30
0.0
 10
1111.776335654707
 20
-407.32247317825
 30
0.0
 10
1109.870961212302
 20
-407.7124196536198
 30
0.0
 10
1108.621073084611
 20
-407.6878963802556
 30
0.0
 10
1108.143207842143
 20
-407.6785204851553
 30
0.0
  0
SPLINE
  5
118
330
1F
100
AcDbEntity
  8
0
  6
Continuous
 62
     7
370
    25
100
AcDbSpline
210
0.0
220
0.0
230
1.0
 70
     8
 71
     3
 72
    13
 73
     9
 74
     0
 42
0.00000001
 43
0.00000001
 40
0.0
 40
0.0
 40
0.0
 40
0.0
 40
0.1930291410663709
 40
0.3860294815218143
 40
0.5797740554353159
 40
0.7746021749342944
 40
0.9700335687370448
 40
0.9999999999999999
 40
0.9999999999999999
 40
0.9999999999999999
 40
0.9999999999999999
 10
1059.588379105125
 20
-378.0560009545356
 30
0.0
 10
1058.799385890776
 20
-378.1245136519203
 30
0.0
 10
1057.221517182575
 20
-378.2615288243602
 30
0.0
 10
1054.95926430852
 20
-377.9576080316609
 30
0.0
 10
1053.071069203223
 20
-377.3174929502306
 30
0.0
 10
1051.851176573995
 20
-376.3729961061553
 30
0.0
 10
1051.3079735534
 20
-375.5634237421588
 30
0.0
 10
1051.433357977651
 20
-375.1064524102254
 30
0.0
 10
1051.45002772027
 20
-375.0456984965462
 30
0.0
  0
SPLINE
  5
119
330
1F
100
AcDbEntity
  8
0
  6
Continuous
 62
     7
370
    25
100
AcDbSpline
210
0.0
220
0.0
230
1.0
 70
     8
 71
     3
 72
    12
 73
     8
 74
     0
 42
0.00000001
 43
0.00000001
 40
0.0
 40
0.0
 40
0.0
 40
0.0
 40
0.129324679106518
 40
0.3708108472451671
 40
0.6112784990964916
 40
0.8511150925111626
 40
1.0
 40
1.0
 40
1.0
 40
1.0
 10
1065.297737376839
 20
-374.2216549496061
 30
0.0
 10
1065.31449614412
 20
-374.4376730763415
 30
0.0
 10
1065.362548323623
 20
-375.0570588358767
 30
0.0
 10
1064.570810352581
 20
-376.0814776049523
 30
0.0
 10
1063.082260179939
 20
-377.1044242846641
 30
0.0
 10
1061.294312715068
 20
-377.7649611850542
 30
0.0
 10
1060.060820958
 20
-377.9754002985941
 30
0.0
 10
1059.588379105125
 20
-378.0560009545356
 30
0.0
  0
LWPOLYLINE
  5
11A
330
1F
100
AcDbEntity
  8
0
  6
Continuous
 62
     7
370
    25
100
AcDbPolyline
 90
       29
 70
   128
 43
0.0
 10
875.2570719428
 20
-535.5550639772
 10
876.2343938691
 20
-536.2625433072
 10
876.9145077867
 20
-537.0778300604
 10
877.2633099437
 20
-537.9600423549
 10
877.2633099437
 20
-538.8649423823
 10
876.9145077867
 20
-539.7471546768
 10
876.2343938691
 20
-540.5624414301
 10
875.2570719428
 20
-541.26992076
 10
874.0315490101
 20
-541.8341166988
 10
872.6192779082
 20
-542.2267381062
 10
871.0910758072
 20
-542.4280973055
 10
869.5235731418
 20
-542.4280973055
 10
867.9953710408
 20
-542.2267381062
 10
866.5830999389
 20
-541.8341166988
 10
865.3575770062
 20
-541.26992076
 10
864.3802550799
 20
-540.5624414301
 10
863.7001411623
 20
-539.7471546768
 10
863.3513390052
 20
-538.8649423823
 10
863.3513390052
 20
-537.9600423549
 10
863.7001411623
 20
-537.0778300604
 10
864.3802550799
 20
-536.2625433072
 10
865.3575770062
 20
-535.5550639772
 10
866.5830999389
 20
-534.9908680384
 10
867.9953710408
 20
-534.598246631
 10
869.5235731418
 20
-534.3968874318
 10
871.0910758072
 20
-534.3968874318
 10
872.6192779082
 20
-534.598246631
 10
874.0315490101
 20
-534.9908680384
 10
875.2570719428
 20
-535.5550639772
  0
LWPOLYLINE
  5
11B
330
1F
100
AcDbEntity
  8
0
  6
Continuous
 62
     7
370
    25
100
AcDbPolyline
 90
       24
 70
   128
 43
0.0
 10
873.8428583804
 20
-536.3714720891
 10
874.6656268247
 20
-536.9978193389
 10
875.1651599215
 20
-537.7290864156
 10
875.3044095863
 20
-538.5110385856
 10
875.0730483086
 20
-539.2856820334
 10
874.4882350958
 20
-539.9955649983
 10
873.5933428686
 20
-540.5880387084
 10
872.4547416896
 20
-541.019162099
 10
871.1568763996
 20
-541.2569607203
 10
869.7960037298
 20
-541.2837981366
 10
868.4730533804
 20
-541.0976839394
 10
867.2861425269
 20
-540.7124213674
 10
866.3232989174
 20
-540.1565835829
 10
865.6559322578
 20
-539.4713945319
 10
865.3335380802
 20
-538.7076715515
 10
865.3800268859
 20
-537.9220564815
 10
865.7919508129
 20
-537.1728147976
 10
866.5387593479
 20
-536.515514328
 10
867.5650651182
 20
-535.9989040416
 10
868.7947517201
 20
-535.66129856
 10
870.1366189236
 20
-535.5277365373
 10
871.4911465768
 20
-535.6081236577
 10
872.7578755604
 20
-535.8964979763
 10
873.8428583804
 20
-536.3714720891
  0
SPLINE
  5
11C
330
1F
100
AcDbEntity
  8
0
  6
Continuous
 62
     7
370
    25
100
AcDbSpline
210
0.0
220
0.0
230
1.0
 70
     8
 71
     3
 72
    15
 73
    11
 74
     0
 42
0.00000001
 43
0.00000001
 40
0.0
 40
0.0
 40
0.0
 40
0.0
 40
0.0633773133668882
 40
0.1978809581181864
 40
0.3318899887827202
 40
0.4657160085629399
 40
0.5997256495370977
 40
0.7342697663861327
 40
0.8695697540249818
 40
1.0
 40
1.0
 40
1.0
 40
1.0
 10
865.5460099797763
 20
-539.243789928781
 30
0.0
 10
865.5996425272787
 20
-539.0802081819254
 30
0.0
 10
865.7670977146679
 20
-538.5694621266132
 30
0.0
 10
866.622078314613
 20
-537.8754914866091
 30
0.0
 10
867.9618355005033
 20
-537.2812198304151
 30
0.0
 10
869.590100078512
 20
-537.0327793672204
 30
0.0
 10
871.2928304417551
 20
-537.1502779075138
 30
0.0
 10
872.8790690263646
 20
-537.6304187940967
 30
0.0
 10
874.2032883270239
 20
-538.4025087236755
 30
0.0
 10
874.6998277465692
 20
-539.0800730141956
 30
0.0
 10
874.9435476942274
 20
-539.4126466768705
 30
0.0
  0
LWPOLYLINE
  5
11D
330
1F
100
AcDbEntity
  8
0
  6
Continuous
 62
     7
370
    25
100
AcDbPolyline
 90
       29
 70
   128
 43
0.0
 10
815.8601023231
 20
-512.6956368462
 10
814.8827803968
 20
-511.9881575163
 10
814.2026664793
 20
-511.172870763
 10
813.8538643222
 20
-510.2906584685
 10
813.8538643222
 20
-509.3857584411
 10
814.2026664793
 20
-508.5035461466
 10
814.8827803968
 20
-507.6882593934
 10
815.8601023231
 20
-506.9807800634
 10
817.0856252558
 20
-506.4165841246
 10
818.4978963577
 20
-506.0239627172
 10
820.0260984587
 20
-505.822603518
 10
821.5936011242
 20
-505.822603518
 10
823.1218032251
 20
-506.0239627172
 10
824.534074327
 20
-506.4165841246
 10
825.7595972597
 20
-506.9807800634
 10
826.736919186
 20
-507.6882593934
 10
827.4170331036
 20
-508.5035461466
 10
827.7658352607
 20
-509.3857584411
 10
827.7658352607
 20
-510.2906584685
 10
827.4170331036
 20
-511.172870763
 10
826.736919186
 20
-511.9881575163
 10
825.7595972597
 20
-512.6956368462
 10
824.534074327
 20
-513.259832785
 10
823.1218032251
 20
-513.6524541924
 10
821.5936011242
 20
-513.8538133917
 10
820.0260984587
 20
-513.8538133917
 10
818.4978963577
 20
-513.6524541924
 10
817.0856252558
 20
-513.259832785
 10
815.8601023231
 20
-512.6956368462
  0
LWPOLYLINE
  5
11E
330
1F
100
AcDbEntity
  8
0
  6
Continuous
 62
     7
370
    25
100
AcDbPolyline
 90
       24
 70
   128
 43
0.0
 10
817.2743158855
 20
-511.8792287344
 10
816.4515474413
 20
-511.2528814845
 10
815.9520143444
 20
-510.5216144078
 10
815.8127646796
 20
-509.7396622379
 10
816.0441259574
 20
-508.9650187901
 10
816.6289391702
 20
-508.2551358251
 10
817.5238313973
 20
-507.662662115
 10
818.6624325763
 20
-507.2315387245
 10
819.9602978663
 20
-506.9937401031
 10
821.3211705361
 20
-506.9669026869
 10
822.6441208855
 20
-507.153016884
 10
823.831031739
 20
-507.5382794561
 10
824.7938753485
 20
-508.0941172405
 10
825.4612420081
 20
-508.7793062916
 10
825.7836361857
 20
-509.543029272
 10
825.73714738
 20
-510.328644342
 10
825.3252234531
 20
-511.0778860259
 10
824.5784149181
 20
-511.7351864954
 10
823.5521091477
 20
-512.2517967818
 10
822.3224225458
 20
-512.5894022634
 10
820.9805553424
 20
-512.7229642861
 10
819.6260276891
 20
-512.6425771657
 10
818.3592987055
 20
-512.3542028471
 10
817.2743158855
 20
-511.8792287344
  0
SPLINE
  5
11F
330
1F
100
AcDbEntity
  8
0
  6
Continuous
 62
     7
370
    25
100
AcDbSpline
210
0.0
220
0.0
230
1.0
 70
     8
 71
     3
 72
    15
 73
    11
 74
     0
 42
0.00000001
 43
0.00000001
 40
0.0
 40
0.0
 40
0.0
 40
0.0
 40
0.0941980763359796
 40
0.2330417095459174
 40
0.3717284468462976
 40
0.5110650386830127
 40
0.6514906956765699
 40
0.7928464758368193
 40
0.9345173131540672
 40
0.9999999999999999
 40
0.9999999999999999
 40
0.9999999999999999
 40
0.9999999999999999
 10
816.3174653611063
 20
-511.0453615923304
 30
0.0
 10
816.4755407185962
 20
-510.8567376486703
 30
0.0
 10
816.8666118845838
 20
-510.390090685148
 30
0.0
 10
818.0299516394502
 20
-509.7834855643949
 30
0.0
 10
819.5703692249882
 20
-509.3080942510362
 30
0.0
 10
821.2673994812168
 20
-509.1068205236319
 30
0.0
 10
822.9234926156302
 20
-509.2012052288783
 30
0.0
 10
824.3203510183438
 20
-509.5987778778091
 30
0.0
 10
825.2346657194394
 20
-510.1119159472305
 30
0.0
 10
825.4402081743563
 20
-510.519027776132
 30
0.0
 10
825.5051815908755
 20
-510.6477186903268
 30
0.0
  0
LWPOLYLINE
  5
120
330
1F
100
AcDbEntity
  8
0
  6
Continuous
 62
     7
370
    25
100
AcDbPolyline
 90
       29
 70
   128
 43
0.0
 10
1102.9454554849
 20
-404.1133579738
 10
1101.9681335586
 20
-403.4058786439
 10
1101.288019641
 20
-402.5905918906
 10
1100.9392174839
 20
-401.7083795961
 10
1100.9392174839
 20
-400.8034795687
 10
1101.288019641
 20
-399.9212672742
 10
1101.9681335586
 20
-399.105980521
 10
1102.9454554849
 20
-398.398501191
 10
1104.1709784176
 20
-397.8343052522
 10
1105.5832495195
 20
-397.4416838448
 10
1107.1114516205
 20
-397.2403246456
 10
1108.6789542859
 20
-397.2403246456
 10
1110.2071563869
 20
-397.4416838448
 10
1111.6194274888
 20
-397.8343052522
 10
1112.8449504215
 20
-398.398501191
 10
1113.8222723478
 20
-399.105980521
 10
1114.5023862653
 20
-399.9212672742
 10
1114.8511884224
 20
-400.8034795687
 10
1114.8511884224
 20
-401.7083795961
 10
1114.5023862653
 20
-402.5905918906
 10
1113.8222723478
 20
-403.4058786439
 10
1112.8449504215
 20
-404.1133579738
 10
1111.6194274888
 20
-404.6775539126
 10
1110.2071563869
 20
-405.07017532
 10
1108.6789542859
 20
-405.2715345193
 10
1107.1114516205
 20
-405.2715345193
 10
1105.5832495195
 20
-405.07017532
 10
1104.1709784176
 20
-404.6775539126
 10
1102.9454554849
 20
-404.1133579738
  0
LWPOLYLINE
  5
121
330
1F
100
AcDbEntity
  8
0
  6
Continuous
 62
     7
370
    25
100
AcDbPolyline
 90
       24
 70
   128
 43
0.0
 10
1104.3596690472
 20
-403.296949862
 10
1103.536900603
 20
-402.6706026121
 10
1103.0373675062
 20
-401.9393355354
 10
1102.8981178413
 20
-401.1573833655
 10
1103.1294791191
 20
-400.3827399177
 10
1103.7142923319
 20
-399.6728569527
 10
1104.6091845591
 20
-399.0803832426
 10
1105.747785738
 20
-398.6492598521
 10
1107.045651028
 20
-398.4114612307
 10
1108.4065236979
 20
-398.3846238144
 10
1109.7294740472
 20
-398.5707380116
 10
1110.9163849008
 20
-398.9560005837
 10
1111.8792285103
 20
-399.5118383681
 10
1112.5465951699
 20
-400.1970274192
 10
1112.8689893475
 20
-400.9607503996
 10
1112.8225005418
 20
-401.7463654696
 10
1112.4105766148
 20
-402.4956071534
 10
1111.6637680798
 20
-403.152907623
 10
1110.6374623094
 20
-403.6695179094
 10
1109.4077757076
 20
-404.007123391
 10
1108.0659085041
 20
-404.1406854137
 10
1106.7113808508
 20
-404.0602982933
 10
1105.4446518673
 20
-403.7719239747
 10
1104.3596690472
 20
-403.296949862
  0
SPLINE
  5
122
330
1F
100
AcDbEntity
  8
0
  6
Continuous
 62
     7
370
    25
100
AcDbSpline
210
0.0
220
0.0
230
1.0
 70
     8
 71
     3
 72
    15
 73
    11
 74
     0
 42
0.00000001
 43
0.00000001
 40
0.0
 40
0.0
 40
0.0
 40
0.0
 40
0.0547432457623411
 40
0.1907334825178342
 40
0.3264401455527999
 40
0.4622403050325654
 40
0.598466601175002
 40
0.7353463544199567
 40
0.8729210404626079
 40
1.0
 40
1.0
 40
1.0
 40
1.0
 10
1103.15060375402
 20
-401.9984613230977
 30
0.0
 10
1103.195522791149
 20
-401.8623390184059
 30
0.0
 10
1103.352027292548
 20
-401.3880689808755
 30
0.0
 10
1104.180030597761
 20
-400.7369398420705
 30
0.0
 10
1105.504888191155
 20
-400.1644183478657
 30
0.0
 10
1107.128220926217
 20
-399.9332833678888
 30
0.0
 10
1108.833174931045
 20
-400.0614826717702
 30
0.0
 10
1110.427565631778
 20
-400.5464767299134
 30
0.0
 10
1111.749129689793
 20
-401.30571766869
 30
0.0
 10
1112.245778017288
 20
-401.9631121283654
 30
0.0
 10
1112.484254054811
 20
-402.2787737689148
 30
0.0
  0
LWPOLYLINE
  5
123
330
1F
100
AcDbEntity
  8
0
  6
Continuous
 62
     7
370
    25
100
AcDbPolyline
 90
       29
 70
   128
 43
0.0
 10
1063.3474757384
 20
-369.8242172772
 10
1064.3247976647
 20
-370.5316966072
 10
1065.0049115823
 20
-371.3469833604
 10
1065.3537137394
 20
-372.2291956549
 10
1065.3537137394
 20
-373.1340956823
 10
1065.0049115823
 20
-374.0163079768
 10
1064.3247976647
 20
-374.8315947301
 10
1063.3474757384
 20
-375.53907406
 10
1062.1219528057
 20
-376.1032699988
 10
1060.7096817038
 20
-376.4958914062
 10
1059.1814796028
 20
-376.6972506055
 10
1057.6139769374
 20
-376.6972506055
 10
1056.0857748364
 20
-376.4958914062
 10
1054.6735037345
 20
-376.1032699988
 10
1053.4479808018
 20
-375.53907406
 10
1052.4706588755
 20
-374.8315947301
 10
1051.790544958
 20
-374.0163079768
 10
1051.4417428009
 20
-373.1340956823
 10
1051.4417428009
 20
-372.2291956549
 10
1051.790544958
 20
-371.3469833604
 10
1052.4706588755
 20
-370.5316966072
 10
1053.4479808018
 20
-369.8242172772
 10
1054.6735037345
 20
-369.2600213384
 10
1056.0857748364
 20
-368.867399931
 10
1057.6139769374
 20
-368.6660407318
 10
1059.1814796028
 20
-368.6660407318
 10
1060.7096817038
 20
-368.867399931
 10
1062.1219528057
 20
-369.2600213384
 10
1063.3474757384
 20
-369.8242172772
  0
LWPOLYLINE
  5
124
330
1F
100
AcDbEntity
  8
0
  6
Continuous
 62
     7
370
    25
100
AcDbPolyline
 90
       24
 70
   128
 43
0.0
 10
1061.933262176
 20
-370.6406253891
 10
1062.7560306203
 20
-371.2669726389
 10
1063.2555637171
 20
-371.9982397156
 10
1063.3948133819
 20
-372.7801918855
 10
1063.1634521042
 20
-373.5548353334
 10
1062.5786388914
 20
-374.2647182983
 10
1061.6837466642
 20
-374.8571920084
 10
1060.5451454853
 20
-375.2883153989
 10
1059.2472801953
 20
-375.5261140203
 10
1057.8864075254
 20
-375.5529514366
 10
1056.563457176
 20
-375.3668372394
 10
1055.3765463225
 20
-374.9815746673
 10
1054.413702713
 20
-374.4257368829
 10
1053.7463360534
 20
-373.7405478318
 10
1053.4239418758
 20
-372.9768248515
 10
1053.4704306815
 20
-372.1912097814
 10
1053.8823546085
 20
-371.4419680976
 10
1054.6291631435
 20
-370.784667628
 10
1055.6554689139
 20
-370.2680573416
 10
1056.8851555157
 20
-369.93045186
 10
1058.2270227192
 20
-369.7968898373
 10
1059.5815503724
 20
-369.8772769577
 10
1060.848279356
 20
-370.1656512763
 10
1061.933262176
 20
-370.6406253891
  0
SPLINE
  5
125
330
1F
100
AcDbEntity
  8
0
  6
Continuous
 62
     7
370
    25
100
AcDbSpline
210
0.0
220
0.0
230
1.0
 70
     8
 71
     3
 72
    15
 73
    11
 74
     0
 42
0.00000001
 43
0.00000001
 40
0.0
 40
0.0
 40
0.0
 40
0.0
 40
0.0945235870027721
 40
0.2343172616920053
 40
0.3735804764231801
 40
0.5131453697416529
 40
0.6536389136822045
 40
0.7951587023198342
 40
0.9372917212574672
 40
1.0
 40
1.0
 40
1.0
 40
1.0
 10
1053.911028082787
 20
-373.8515693874921
 30
0.0
 10
1054.069301275871
 20
-373.6698614154107
 30
0.0
 10
1054.461649285279
 20
-373.2194202525663
 30
0.0
 10
1055.628700405583
 20
-372.6415541971915
 30
0.0
 10
1057.172384596728
 20
-372.1966427793994
 30
0.0
 10
1058.868230455047
 20
-372.021546348185
 30
0.0
 10
1060.519944984302
 20
-372.1333686019238
 30
0.0
 10
1061.911286027206
 20
-372.5367796300949
 30
0.0
 10
1062.81753987688
 20
-373.0413203703861
 30
0.0
 10
1063.020466003821
 20
-373.4338450905587
 30
0.0
 10
1063.08258798936
 20
-373.5540090899314
 30
0.0
  0
LWPOLYLINE
  5
126
330
1F
100
AcDbEntity
  8
0
  6
Continuous
 62
     1
370
    25
100
AcDbPolyline
 90
       95
 70
   128
 43
0.0
 10
800.2765184399
 20
-444.86897836
 10
803.5579255691
 20
-443.0531031815
 10
808.9674647135
 20
-440.3844877209
 10
814.5424323482
 20
-438.0244912975
 10
820.2765351792
 20
-435.9757779897
 10
826.1633002731
 20
-434.2406604846
 10
832.1960823638
 20
-432.8210974668
 10
838.3680713543
 20
-431.7186914081
 10
844.6723000039
 20
-430.9346867578
 10
851.1016517936
 20
-430.4699685384
 10
857.6488689591
 20
-430.3250613464
 10
864.306560684
 20
-430.5001287602
 10
871.067211443
 20
-430.9949731549
 10
877.9231894856
 20
-431.8090359265
 10
884.866755451
 20
-432.9413981212
 10
891.8900711052
 20
-434.3907814737
 10
898.9852081888
 20
-436.1555498497
 10
906.1441573668
 20
-438.2337110932
 10
913.3588372701
 20
-440.6229192748
 10
920.621103618
 20
-443.3204773405
 10
927.922758412
 20
-446.3233401558
 10
935.2555591898
 20
-449.6281179436
 10
942.6112283303
 20
-453.2310801103
 10
949.9814623973
 20
-457.1281594575
 10
957.357941513
 20
-461.3149567729
 10
964.7323387499
 20
-465.7867457967
 10
972.0963295307
 20
-470.5384785564
 10
979.4416010254
 20
-475.5647910656
 10
986.7598615351
 20
-480.8600093788
 10
994.0428498524
 20
-486.4181559968
 10
1001.2823445866
 20
-492.232956614
 10
1008.4701734451
 20
-498.2978472014
 10
1015.5982224578
 20
-504.6059814163
 10
1022.6584451373
 20
-511.1502383307
 10
1029.6428715616
 20
-517.92323047
 10
1036.5436173713
 20
-524.9173121521
 10
1043.3528926699
 20
-532.1245881182
 10
1050.0630108171
 20
-539.5369224456
 10
1056.6663971059
 20
-547.1459477318
 10
1063.1555973136
 20
-554.9430745398
 10
1069.5232861162
 20
-562.9195010946
 10
1075.7622753575
 20
-571.0662232191
 10
1081.865522164
 20
-579.374044498
 10
1087.8261368946
 20
-587.8335866597
 10
1093.6373909181
 20
-596.4353001626
 10
1099.292724209
 20
-605.1694749751
 10
1104.7857527529
 20
-614.0262515371
 10
1110.1102757527
 20
-622.9956318894
 10
1115.2602826284
 20
-632.0674909605
 10
1120.2299598024
 20
-641.2315879957
 10
1125.0136972621
 20
-650.4775781177
 10
1129.6060948926
 20
-659.7950240043
 10
1134.0019685726
 20
-669.1734076705
 10
1138.1963560267
 20
-678.602142342
 10
1142.1845224267
 20
-688.0705844056
 10
1145.9619657371
 20
-697.5680454246
 10
1149.5244217965
 20
-707.0838042042
 10
1152.8678691318
 20
-716.6071188943
 10
1155.9885334973
 20
-726.1272391153
 10
1158.8828921358
 20
-735.6334180936
 10
1161.5476777548
 20
-745.1149247932
 10
1163.979882215
 20
-754.5610560294
 10
1166.1767599261
 20
-763.9611485509
 10
1168.1358309458
 20
-773.3045910775
 10
1169.8548837799
 20
-782.5808362777
 10
1171.331977878
 20
-791.7794126761
 10
1172.5654458246
 20
-800.8899364733
 10
1173.5538952215
 20
-809.9021232682
 10
1174.2962102588
 20
-818.805799667
 10
1174.7915529753
 20
-827.5909147679
 10
1175.0393642043
 20
-836.2475515069
 10
1175.0393642043
 20
-844.7659378523
 10
1174.7915529753
 20
-853.1364578364
 10
1174.2962102588
 20
-861.3496624102
 10
1173.5538952215
 20
-869.39628011
 10
1172.5654458246
 20
-877.2672275232
 10
1171.331977878
 20
-884.9536195427
 10
1169.8548837799
 20
-892.4467793963
 10
1168.1358309458
 20
-899.7382484415
 10
1166.1767599261
 20
-906.8197957144
 10
1163.979882215
 20
-913.6834272209
 10
1161.5476777548
 20
-920.3213949607
 10
1158.8828921358
 20
-926.726205674
 10
1155.9885334973
 20
-932.8906292995
 10
1152.8678691318
 20
-938.807707137
 10
1149.5244217965
 20
-944.4707597018
 10
1145.9619657371
 20
-949.8733942655
 10
1142.1845224267
 20
-955.0095120721
 10
1138.1963560267
 20
-959.8733152226
 10
1134.0019685726
 20
-964.4593132202
 10
1129.6060948926
 20
-968.7623291678
 10
1125.0136972621
 20
-972.7775056122
 10
1120.2299598024
 20
-976.5003100275
 10
1115.2602826284
 20
-979.9265399315
 10
1110.751077555
 20
-982.6854416093
  0
LWPOLYLINE
  5
127
330
1F
100
AcDbEntity
  8
0
  6
Continuous
 62
     1
370
    25
100
AcDbPolyline
 90
       95
 70
   128
 43
0.0
 10
817.9539778954
 20
-434.6639982351
 10
821.2355950987
 20
-432.8480017837
 10
826.6451342432
 20
-430.1793863231
 10
832.2201018779
 20
-427.8193898997
 10
837.9542047089
 20
-425.770676592
 10
843.8409698028
 20
-424.0355590868
 10
849.8737518935
 20
-422.615996069
 10
856.045740884
 20
-421.5135900103
 10
862.3499695336
 20
-420.72958536
 10
868.7793213232
 20
-420.2648671406
 10
875.3265384887
 20
-420.1199599487
 10
881.9842302137
 20
-420.2950273624
 10
888.7448809727
 20
-420.7898717572
 10
895.6008590152
 20
-421.6039345287
 10
902.5444249807
 20
-422.7362967234
 10
909.5677406349
 20
-424.1856800759
 10
916.6628777185
 20
-425.9504484519
 10
923.8218268965
 20
-428.0286096954
 10
931.0365067998
 20
-430.417817877
 10
938.2987731477
 20
-433.1153759427
 10
945.6004279417
 20
-436.118238758
 10
952.9332287195
 20
-439.4230165458
 10
960.28889786
 20
-443.0259787125
 10
967.659131927
 20
-446.9230580597
 10
975.0356110427
 20
-451.1098553752
 10
982.4100082796
 20
-455.5816443989
 10
989.7739990604
 20
-460.3333771586
 10
997.1192705551
 20
-465.3596896678
 10
1004.4375310648
 20
-470.654907981
 10
1011.720519382
 20
-476.213054599
 10
1018.9600141163
 20
-482.0278552162
 10
1026.1478429748
 20
-488.0927458036
 10
1033.2758919875
 20
-494.4008800185
 10
1040.3361146669
 20
-500.9451369329
 10
1047.3205410912
 20
-507.7181290722
 10
1054.221286901
 20
-514.7122107543
 10
1061.0305621996
 20
-521.9194867204
 10
1067.7406803468
 20
-529.3318210478
 10
1074.3440666356
 20
-536.940846334
 10
1080.8332668433
 20
-544.737973142
 10
1087.2009556458
 20
-552.7143996969
 10
1093.4399448872
 20
-560.8611218213
 10
1099.5431916937
 20
-569.1689431002
 10
1105.5038064242
 20
-577.6284852619
 10
1111.3150604477
 20
-586.2301987648
 10
1116.9703937387
 20
-594.9643735773
 10
1122.4634222826
 20
-603.8211501393
 10
1127.7879452823
 20
-612.7905304916
 10
1132.937952158
 20
-621.8623895627
 10
1137.9076293321
 20
-631.0264865979
 10
1142.6913667918
 20
-640.2724767199
 10
1147.2837644223
 20
-649.5899226065
 10
1151.6796381023
 20
-658.9683062728
 10
1155.8740255563
 20
-668.3970409442
 10
1159.8621919564
 20
-677.8654830078
 10
1163.6396352668
 20
-687.3629440268
 10
1167.2020913262
 20
-696.8787028064
 10
1170.5455386615
 20
-706.4020174965
 10
1173.666203027
 20
-715.9221377175
 10
1176.5605616655
 20
-725.4283166958
 10
1179.2253472845
 20
-734.9098233954
 10
1181.6575517447
 20
-744.3559546316
 10
1183.8544294557
 20
-753.7560471532
 10
1185.8135004755
 20
-763.0994896797
 10
1187.5325533095
 20
-772.3757348799
 10
1189.0096474076
 20
-781.5743112783
 10
1190.2431153543
 20
-790.6848350756
 10
1191.2315647511
 20
-799.6970218704
 10
1191.9738797884
 20
-808.6006982692
 10
1192.469222505
 20
-817.3858133702
 10
1192.717033734
 20
-826.0424501091
 10
1192.717033734
 20
-834.5608364545
 10
1192.469222505
 20
-842.9313564386
 10
1191.9738797884
 20
-851.1445610124
 10
1191.2315647511
 20
-859.1911787122
 10
1190.2431153543
 20
-867.0621261254
 10
1189.0096474076
 20
-874.7485181449
 10
1187.5325533095
 20
-882.2416779985
 10
1185.8135004755
 20
-889.5331470437
 10
1183.8544294557
 20
-896.6146943166
 10
1181.6575517447
 20
-903.4783258231
 10
1179.2253472845
 20
-910.116293563
 10
1176.5605616655
 20
-916.5211042762
 10
1173.666203027
 20
-922.6855279017
 10
1170.5455386615
 20
-928.6026057392
 10
1167.2020913262
 20
-934.265658304
 10
1163.6396352668
 20
-939.6682928677
 10
1159.8621919564
 20
-944.8044106743
 10
1155.8740255563
 20
-949.6682138249
 10
1151.6796381023
 20
-954.2542118224
 10
1147.2837644223
 20
-958.55722777
 10
1142.6913667918
 20
-962.5724042144
 10
1137.9076293321
 20
-966.2952086297
 10
1132.937952158
 20
-969.7214385337
 10
1128.4287443789
 20
-972.4803417735
  0
ENDSEC
  0
SECTION
  2
OBJECTS
  0
DICTIONARY
  5
C
330
0
100
AcDbDictionary
281
     1
  3
ACAD_GROUP
350
D
  3
ACAD_LAYOUT
350
1A
  3
ACAD_MLINESTYLE
350
17
  3
ACAD_PLOTSETTINGS
350
19
  3
ACAD_PLOTSTYLENAME
350
E
  3
ACAD_SCALELIST
350
47
  3
DWGPROPS
350
128
  0
DICTIONARY
  5
D
102
{ACAD_REACTORS
330
C
102
}
330
C
100
AcDbDictionary
281
     1
  0
DICTIONARY
  5
1A
102
{ACAD_REACTORS
330
C
102
}
330
C
100
AcDbDictionary
281
     1
  3
Layout1
350
1E
  3
Layout2
350
26
  3
Model
350
22
  0
DICTIONARY
  5
17
102
{ACAD_REACTORS
330
C
102
}
330
C
100
AcDbDictionary
281
     1
  3
Standard
350
18
  0
DICTIONARY
  5
19
102
{ACAD_REACTORS
330
C
102
}
330
C
100
AcDbDictionary
281
     1
  0
ACDBDICTIONARYWDFLT
  5
E
102
{ACAD_REACTORS
330
C
102
}
330
C
100
AcDbDictionary
281
     1
  3
Normal
350
F
100
AcDbDictionaryWithDefault
340
F
  0
DICTIONARY
  5
47
102
{ACAD_REACTORS
330
C
102
}
330
C
100
AcDbDictionary
281
     1
  3
A0
350
48
  3
A1
350
49
  3
A2
350
4A
  3
A3
350
4B
  3
A4
350
4C
  3
A5
350
4D
  3
A6
350
4E
  3
A7
350
4F
  3
A8
350
50
  3
A9
350
51
  3
B0
350
52
  3
B1
350
53
  3
B2
350
54
  3
B3
350
55
  3
B4
350
56
  3
B5
350
57
  3
B6
350
58
  3
B7
350
59
  3
B8
350
5A
  3
B9
350
5B
  3
C0
350
5C
  3
C1
350
5D
  3
C2
350
5E
  3
C3
350
5F
  3
C4
350
60
  3
C5
350
61
  3
C6
350
62
  3
C7
350
63
  3
C8
350
64
  3
C9
350
65
  3
D0
350
66
  3
D1
350
67
  3
D2
350
68
  0
XRECORD
  5
128
102
{ACAD_REACTORS
330
C
102
}
330
C
100
AcDbXrecord
280
     1
  1
DWGPROPS COOKIE
  2

  3

  4

  6

  7

  8
b.kav
  9

300
=
301
=
302
=
303
=
304
=
305
=
306
=
307
=
308
=
309
=
 40
0.0
 41
2459935.585477859
 42
2459935.585478044
  1

 90
        0
  0
LAYOUT
  5
1E
102
{ACAD_REACTORS
330
1A
102
}
330
1A
100
AcDbPlotSettings
  1

  2
none_device
  4

  6

 40
0.0
 41
0.0
 42
0.0
 43
0.0
 44
0.0
 45
0.0
 46
0.0
 47
0.0
 48
0.0
 49
0.0
140
0.0
141
0.0
142
1.0
143
1.0
 70
   688
 72
     1
 73
     0
 74
     5
  7

 75
    16
147
1.0
148
0.0
149
0.0
100
AcDbLayout
  1
Layout1
 70
     1
 71
     1
 10
0.0
 20
0.0
 11
420.0
 21
297.0
 12
0.0
 22
0.0
 32
0.0
 14
1.0000000000E+20
 24
1.0000000000E+20
 34
1.0000000000E+20
 15
-1.0000000000E+20
 25
-1.0000000000E+20
 35
-1.0000000000E+20
146
0.0
 13
0.0
 23
0.0
 33
0.0
 16
1.0
 26
0.0
 36
0.0
 17
0.0
 27
1.0
 37
0.0
 76
     0
330
1B
  0
LAYOUT
  5
26
102
{ACAD_REACTORS
330
1A
102
}
330
1A
100
AcDbPlotSettings
  1

  2
none_device
  4

  6

 40
0.0
 41
0.0
 42
0.0
 43
0.0
 44
0.0
 45
0.0
 46
0.0
 47
0.0
 48
0.0
 49
0.0
140
0.0
141
0.0
142
1.0
143
1.0
 70
   688
 72
     1
 73
     0
 74
     5
  7

 75
    16
147
1.0
148
0.0
149
0.0
100
AcDbLayout
  1
Layout2
 70
     1
 71
     2
 10
0.0
 20
0.0
 11
0.0
 21
0.0
 12
0.0
 22
0.0
 32
0.0
 14
0.0
 24
0.0
 34
0.0
 15
0.0
 25
0.0
 35
0.0
146
0.0
 13
0.0
 23
0.0
 33
0.0
 16
1.0
 26
0.0
 36
0.0
 17
0.0
 27
1.0
 37
0.0
 76
     0
330
23
  0
LAYOUT
  5
22
102
{ACAD_REACTORS
330
1A
102
}
330
1A
100
AcDbPlotSettings
  1

  2
none_device
  4
Letter_(8.50_x_11.00_Inches)
  6

 40
6.35
 41
6.35
 42
6.35000508
 43
6.35000508
 44
215.9
 45
279.4
 46
0.0
 47
0.0
 48
0.0
 49
0.0
140
0.0
141
0.0
142
1.0
143
1.0
 70
  1712
 72
     1
 73
     0
 74
     0
  7

 75
     0
147
1.0
148
0.0
149
0.0
100
AcDbLayout
  1
Model
 70
     1
 71
     0
 10
0.0
 20
0.0
 11
279.4
 21
215.9
 12
0.0
 22
0.0
 32
0.0
 14
0.0
 24
0.0
 34
0.0
 15
279.4
 25
215.9
 35
0.0
146
0.0
 13
0.0
 23
0.0
 33
0.0
 16
1.0
 26
0.0
 36
0.0
 17
0.0
 27
1.0
 37
0.0
 76
     0
330
1F
331
29
  0
MLINESTYLE
  5
18
102
{ACAD_REACTORS
330
17
102
}
330
17
100
AcDbMlineStyle
  2
Standard
 70
     0
  3

 62
   256
 51
90.0
 52
90.0
 71
     2
 49
0.5
 62
   256
  6
BYLAYER
 49
-0.5
 62
   256
  6
BYLAYER
  0
ACDBPLACEHOLDER
  5
F
102
{ACAD_REACTORS
330
E
102
}
330
E
  0
SCALE
  5
48
102
{ACAD_REACTORS
330
47
102
}
330
47
100
AcDbScale
 70
     0
300
1:1
140
1.0
141
1.0
290
     1
  0
SCALE
  5
49
102
{ACAD_REACTORS
330
47
102
}
330
47
100
AcDbScale
 70
     0
300
1:2
140
1.0
141
2.0
290
     0
  0
SCALE
  5
4A
102
{ACAD_REACTORS
330
47
102
}
330
47
100
AcDbScale
 70
     0
300
1:4
140
1.0
141
4.0
290
     0
  0
SCALE
  5
4B
102
{ACAD_REACTORS
330
47
102
}
330
47
100
AcDbScale
 70
     0
300
1:5
140
1.0
141
5.0
290
     0
  0
SCALE
  5
4C
102
{ACAD_REACTORS
330
47
102
}
330
47
100
AcDbScale
 70
     0
300
1:8
140
1.0
141
8.0
290
     0
  0
SCALE
  5
4D
102
{ACAD_REACTORS
330
47
102
}
330
47
100
AcDbScale
 70
     0
300
1:10
140
1.0
141
10.0
290
     0
  0
SCALE
  5
4E
102
{ACAD_REACTORS
330
47
102
}
330
47
100
AcDbScale
 70
     0
300
1:16
140
1.0
141
16.0
290
     0
  0
SCALE
  5
4F
102
{ACAD_REACTORS
330
47
102
}
330
47
100
AcDbScale
 70
     0
300
1:20
140
1.0
141
20.0
290
     0
  0
SCALE
  5
50
102
{ACAD_REACTORS
330
47
102
}
330
47
100
AcDbScale
 70
     0
300
1:30
140
1.0
141
30.0
290
     0
  0
SCALE
  5
51
102
{ACAD_REACTORS
330
47
102
}
330
47
100
AcDbScale
 70
     0
300
1:40
140
1.0
141
40.0
290
     0
  0
SCALE
  5
52
102
{ACAD_REACTORS
330
47
102
}
330
47
100
AcDbScale
 70
     0
300
1:50
140
1.0
141
50.0
290
     0
  0
SCALE
  5
53
102
{ACAD_REACTORS
330
47
102
}
330
47
100
AcDbScale
 70
     0
300
1:100
140
1.0
141
100.0
290
     0
  0
SCALE
  5
54
102
{ACAD_REACTORS
330
47
102
}
330
47
100
AcDbScale
 70
     0
300
2:1
140
2.0
141
1.0
290
     0
  0
SCALE
  5
55
102
{ACAD_REACTORS
330
47
102
}
330
47
100
AcDbScale
 70
     0
300
4:1
140
4.0
141
1.0
290
     0
  0
SCALE
  5
56
102
{ACAD_REACTORS
330
47
102
}
330
47
100
AcDbScale
 70
     0
300
8:1
140
8.0
141
1.0
290
     0
  0
SCALE
  5
57
102
{ACAD_REACTORS
330
47
102
}
330
47
100
AcDbScale
 70
     0
300
10:1
140
10.0
141
1.0
290
     0
  0
SCALE
  5
58
102
{ACAD_REACTORS
330
47
102
}
330
47
100
AcDbScale
 70
     0
300
100:1
140
100.0
141
1.0
290
     0
  0
SCALE
  5
59
102
{ACAD_REACTORS
330
47
102
}
330
47
100
AcDbScale
 70
     0
300
1/128" = 1'-0"
140
0.0078125
141
12.0
290
     0
  0
SCALE
  5
5A
102
{ACAD_REACTORS
330
47
102
}
330
47
100
AcDbScale
 70
     0
300
1/64" = 1'-0"
140
0.015625
141
12.0
290
     0
  0
SCALE
  5
5B
102
{ACAD_REACTORS
330
47
102
}
330
47
100
AcDbScale
 70
     0
300
1/32" = 1'-0"
140
0.03125
141
12.0
290
     0
  0
SCALE
  5
5C
102
{ACAD_REACTORS
330
47
102
}
330
47
100
AcDbScale
 70
     0
300
1/16" = 1'-0"
140
0.0625
141
12.0
290
     0
  0
SCALE
  5
5D
102
{ACAD_REACTORS
330
47
102
}
330
47
100
AcDbScale
 70
     0
300
3/32" = 1'-0"
140
0.09375
141
12.0
290
     0
  0
SCALE
  5
5E
102
{ACAD_REACTORS
330
47
102
}
330
47
100
AcDbScale
 70
     0
300
1/8" = 1'-0"
140
0.125
141
12.0
290
     0
  0
SCALE
  5
5F
102
{ACAD_REACTORS
330
47
102
}
330
47
100
AcDbScale
 70
     0
300
3/16" = 1'-0"
140
0.1875
141
12.0
290
     0
  0
SCALE
  5
60
102
{ACAD_REACTORS
330
47
102
}
330
47
100
AcDbScale
 70
     0
300
1/4" = 1'-0"
140
0.25
141
12.0
290
     0
  0
SCALE
  5
61
102
{ACAD_REACTORS
330
47
102
}
330
47
100
AcDbScale
 70
     0
300
3/8" = 1'-0"
140
0.375
141
12.0
290
     0
  0
SCALE
  5
62
102
{ACAD_REACTORS
330
47
102
}
330
47
100
AcDbScale
 70
     0
300
1/2" = 1'-0"
140
0.5
141
12.0
290
     0
  0
SCALE
  5
63
102
{ACAD_REACTORS
330
47
102
}
330
47
100
AcDbScale
 70
     0
300
3/4" = 1'-0"
140
0.75
141
12.0
290
     0
  0
SCALE
  5
64
102
{ACAD_REACTORS
330
47
102
}
330
47
100
AcDbScale
 70
     0
300
1" = 1'-0"
140
1.0
141
12.0
290
     0
  0
SCALE
  5
65
102
{ACAD_REACTORS
330
47
102
}
330
47
100
AcDbScale
 70
     0
300
1-1/2" = 1'-0"
140
1.5
141
12.0
290
     0
  0
SCALE
  5
66
102
{ACAD_REACTORS
330
47
102
}
330
47
100
AcDbScale
 70
     0
300
3" = 1'-0"
140
3.0
141
12.0
290
     0
  0
SCALE
  5
67
102
{ACAD_REACTORS
330
47
102
}
330
47
100
AcDbScale
 70
     0
300
6" = 1'-0"
140
6.0
141
12.0
290
     0
  0
SCALE
  5
68
102
{ACAD_REACTORS
330
47
102
}
330
47
100
AcDbScale
 70
     0
300
1'-0" = 1'-0"
140
12.0
141
12.0
290
     0
  0
ENDSEC
  0
EOF
